  0
SECTION
  2
HEADER
  9
$ACADVER
  1
AC1009
  9
$DWGCODEPAGE
  3
undefined
  9
$INSBASE
 10
0.0
 20
0.0
 30
0.0
  9
$EXTMIN
 10
1.000000000000000E+20
 20
1.000000000000000E+20
 30
1.000000000000000E+20
  9
$EXTMAX
 10
-1.000000000000000E+20
 20
-1.000000000000000E+20
 30
-1.000000000000000E+20
  9
$LIMMIN
 10
0.0
 20
0.0
  9
$LIMMAX
 10
12.0
 20
9.0
  9
$ORTHOMODE
 70
     0
  9
$REGENMODE
 70
     1
  9
$FILLMODE
 70
     1
  9
$QTEXTMODE
 70
     0
  9
$MIRRTEXT
 70
     1
  9
$DRAGMODE
 70
     2
  9
$LTSCALE
 40
1.0
  9
$OSMODE
 70
    37
  9
$ATTMODE
 70
     1
  9
$TEXTSIZE
 40
0.2
  9
$TRACEWID
 40
0.05
  9
$TEXTSTYLE
  7
STANDARD
  9
$CLAYER
  8
0
  9
$CELTYPE
  6
BYLAYER
  9
$CECOLOR
 62
   256
  9
$DIMSCALE
 40
1.0
  9
$DIMASZ
 40
0.18
  9
$DIMEXO
 40
0.0625
  9
$DIMDLI
 40
0.38
  9
$DIMRND
 40
0.0
  9
$DIMDLE
 40
0.0
  9
$DIMEXE
 40
0.18
  9
$DIMTP
 40
0.0
  9
$DIMTM
 40
0.0
  9
$DIMTXT
 40
0.18
  9
$DIMCEN
 40
0.09
  9
$DIMTSZ
 40
0.0
  9
$DIMTOL
 70
     0
  9
$DIMLIM
 70
     0
  9
$DIMTIH
 70
     1
  9
$DIMTOH
 70
     1
  9
$DIMSE1
 70
     0
  9
$DIMSE2
 70
     0
  9
$DIMTAD
 70
     0
  9
$DIMZIN
 70
     0
  9
$DIMBLK
  1

  9
$DIMASO
 70
     1
  9
$DIMSHO
 70
     1
  9
$DIMPOST
  1

  9
$DIMAPOST
  1

  9
$DIMALT
 70
     0
  9
$DIMALTD
 70
     2
  9
$DIMALTF
 40
25.4
  9
$DIMLFAC
 40
1.0
  9
$DIMTOFL
 70
     0
  9
$DIMTVP
 40
0.0
  9
$DIMTIX
 70
     0
  9
$DIMSOXD
 70
     0
  9
$DIMSAH
 70
     0
  9
$DIMBLK1
  1

  9
$DIMBLK2
  1

  9
$DIMSTYLE
  2
STANDARD
  9
$DIMCLRD
 70
     0
  9
$DIMCLRE
 70
     0
  9
$DIMCLRT
 70
     0
  9
$DIMTFAC
 40
1.0
  9
$DIMGAP
 40
0.09
  9
$LUNITS
 70
     2
  9
$LUPREC
 70
     4
  9
$SKETCHINC
 40
0.1
  9
$FILLETRAD
 40
0.5
  9
$AUNITS
 70
     0
  9
$AUPREC
 70
     0
  9
$MENU
  1
.
  9
$ELEVATION
 40
0.0
  9
$PELEVATION
 40
0.0
  9
$THICKNESS
 40
0.0
  9
$LIMCHECK
 70
     0
  9
$CHAMFERA
 40
0.5
  9
$CHAMFERB
 40
0.5
  9
$SKPOLY
 70
     0
  9
$TDCREATE
 40
2455647.412175914
  9
$TDUPDATE
 40
2455647.412175938
  9
$TDINDWG
 40
0.0000000116
  9
$TDUSRTIMER
 40
0.0000000116
  9
$USRTIMER
 70
     1
  9
$ANGBASE
 50
0.0
  9
$ANGDIR
 70
     0
  9
$PDMODE
 70
     0
  9
$PDSIZE
 40
0.0
  9
$PLINEWID
 40
0.0
  9
$COORDS
 70
     1
  9
$SPLFRAME
 70
     0
  9
$SPLINETYPE
 70
     6
  9
$SPLINESEGS
 70
     8
  9
$ATTDIA
 70
     0
  9
$ATTREQ
 70
     1
  9
$HANDLING
 70
     1
  9
$HANDSEED
  5
118
  9
$SURFTAB1
 70
     6
  9
$SURFTAB2
 70
     6
  9
$SURFTYPE
 70
     6
  9
$SURFU
 70
     6
  9
$SURFV
 70
     6
  9
$UCSNAME
  2

  9
$UCSORG
 10
0.0
 20
0.0
 30
0.0
  9
$UCSXDIR
 10
1.0
 20
0.0
 30
0.0
  9
$UCSYDIR
 10
0.0
 20
1.0
 30
0.0
  9
$PUCSNAME
  2

  9
$PUCSORG
 10
0.0
 20
0.0
 30
0.0
  9
$PUCSXDIR
 10
1.0
 20
0.0
 30
0.0
  9
$PUCSYDIR
 10
0.0
 20
1.0
 30
0.0
  9
$USERI1
 70
     0
  9
$USERI2
 70
     0
  9
$USERI3
 70
     0
  9
$USERI4
 70
     0
  9
$USERI5
 70
     0
  9
$USERR1
 40
0.0
  9
$USERR2
 40
0.0
  9
$USERR3
 40
0.0
  9
$USERR4
 40
0.0
  9
$USERR5
 40
0.0
  9
$WORLDVIEW
 70
     1
  9
$SHADEDGE
 70
     3
  9
$SHADEDIF
 70
    70
  9
$TILEMODE
 70
     1
  9
$MAXACTVP
 70
    64
  9
$PLIMCHECK
 70
     0
  9
$PEXTMIN
 10
1.000000000000000E+20
 20
1.000000000000000E+20
 30
1.000000000000000E+20
  9
$PEXTMAX
 10
-1.000000000000000E+20
 20
-1.000000000000000E+20
 30
-1.000000000000000E+20
  9
$PLIMMIN
 10
0.0
 20
0.0
  9
$PLIMMAX
 10
12.0
 20
9.0
  9
$UNITMODE
 70
     0
  9
$VISRETAIN
 70
     1
  9
$PLINEGEN
 70
     0
  9
$PSLTSCALE
 70
     1
  0
ENDSEC
  0
SECTION
  2
TABLES
  0
TABLE
  2
VPORT
 70
     1
  0
VPORT
  2
*ACTIVE
 70
     0
 10
0.0
 20
0.0
 11
1.0
 21
1.0
 12
0.0
 22
0.0
 13
0.0
 23
0.0
 14
0.5
 24
0.5
 15
0.5
 25
0.5
 16
0.0
 26
0.0
 36
1.0
 17
0.0
 27
0.0
 37
-1000.0
 40
503.1019623172533
 41
1.794947994056464
 42
50.0
 43
797.8177843720665
 44
1071.567275018337
 50
0.0
 51
0.0
 71
     0
 72
   100
 73
     1
 74
     3
 75
     0
 76
     0
 77
     0
 78
     0
  0
ENDTAB
  0
TABLE
  2
LTYPE
 70
     1
  0
LTYPE
  2
CONTINUOUS
 70
     0
  3
Solid line
 72
    65
 73
     0
 40
0.0
  0
ENDTAB
  0
TABLE
  2
LAYER
 70
     3
  0
LAYER
  2
0
 70
     0
 62
     7
  6
CONTINUOUS
  0
LAYER
  2
PROFILEEDGES
 70
     0
 62
     7
  6
CONTINUOUS
  0
LAYER
  2
SECTIONCUTEDGES
 70
     0
 62
     7
  6
CONTINUOUS
  0
ENDTAB
  0
TABLE
  2
STYLE
 70
     1
  0
STYLE
  2
STANDARD
 70
     0
 40
0.0
 41
1.0
 50
0.0
 71
     0
 42
0.2
  3
txt
  4

  0
ENDTAB
  0
TABLE
  2
VIEW
 70
     0
  0
ENDTAB
  0
TABLE
  2
UCS
 70
     0
  0
ENDTAB
  0
TABLE
  2
APPID
 70
     1
  0
APPID
  2
ACAD
 70
     0
  0
ENDTAB
  0
TABLE
  2
DIMSTYLE
 70
     1
  0
DIMSTYLE
  2
STANDARD
 70
     0
  3

  4

  5

  6

  7

 40
1.0
 41
0.18
 42
0.0625
 43
0.38
 44
0.18
 45
0.0
 46
0.0
 47
0.0
 48
0.0
140
0.18
141
0.09
142
0.0
143
25.4
144
1.0
145
0.0
146
1.0
147
0.09
 71
     0
 72
     0
 73
     1
 74
     1
 75
     0
 76
     0
 77
     0
 78
     0
170
     0
171
     2
172
     0
173
     0
174
     0
175
     0
176
     0
177
     0
178
     0
  0
ENDTAB
  0
ENDSEC
  0
SECTION
  2
BLOCKS
  0
BLOCK
  8
0
  2
$MODEL_SPACE
 70
     0
 10
0.0
 20
0.0
 30
0.0
  3
$MODEL_SPACE
  1

  0
ENDBLK
  5
21
  8
0
  0
BLOCK
 67
     1
  8
0
  2
$PAPER_SPACE
 70
     0
 10
0.0
 20
0.0
 30
0.0
  3
$PAPER_SPACE
  1

  0
ENDBLK
  5
1D
 67
     1
  8
0
  0
ENDSEC
  0
SECTION
  2
ENTITIES
  0
LINE
  5
41
  8
0
 10
168.0584109866006
 20
-9.243365389925298
 30
0.0
 11
181.6504546913076
 21
-2.338730043903645
 31
0.0
  0
LINE
  5
42
  8
0
 10
58.66165535908642
 20
-92.18850732601254
 30
0.0
 11
65.91370898257212
 21
-104.3109454043007
 31
0.0
  0
LINE
  5
43
  8
0
 10
222.2196156853796
 20
-65.06171510975707
 30
0.0
 11
216.7438719255738
 21
-61.14021777767829
 31
0.0
  0
LINE
  5
44
  8
0
 10
64.46036129409676
 20
-39.44897955172838
 30
0.0
 11
57.80896043992138
 21
-51.41474652282967
 31
0.0
  0
LINE
  5
45
  8
0
 10
204.9885447456416
 20
-99.98257335532962
 30
0.0
 11
205.4883482302202
 21
-99.04996584419945
 31
0.0
  0
LINE
  5
46
  8
0
 10
203.1774061567663
 20
-103.8963060784878
 30
0.0
 11
204.9885447456416
 21
-99.98257335532962
 31
0.0
  0
LINE
  5
47
  8
0
 10
150.9603602043097
 20
-103.5910671512892
 30
0.0
 11
157.4431353840739
 21
-91.35454418034638
 31
0.0
  0
LINE
  5
48
  8
0
 10
157.4431353840739
 20
-91.35454418034638
 30
0.0
 11
160.4759320663547
 21
-77.81668252817411
 31
0.0
  0
LINE
  5
49
  8
0
 10
171.8730643011445
 20
-107.5195346684397
 30
0.0
 11
201.8387564020451
 21
-107.8213818125491
 31
0.0
  0
LINE
  5
4A
  8
0
 10
201.8387564020451
 20
-107.8213818125491
 30
0.0
 11
203.1774061567663
 21
-103.8963060784878
 31
0.0
  0
LINE
  5
4B
  8
0
 10
214.2742937838751
 20
-89.78683170453553
 30
0.0
 11
216.6579758900728
 21
-88.34324546795602
 31
0.0
  0
LINE
  5
4C
  8
0
 10
216.6579758900728
 20
-88.34324546795602
 30
0.0
 11
222.0952801538564
 21
-84.49195978021872
 31
0.0
  0
LINE
  5
4D
  8
0
 10
216.7438719255738
 20
-61.14021777767829
 30
0.0
 11
211.5138626166666
 21
-57.96928790902801
 31
0.0
  0
LINE
  5
4E
  8
0
 10
211.5138626166666
 20
-57.96928790902801
 30
0.0
 11
210.7743466246523
 21
-57.22032170287272
 31
0.0
  0
LINE
  5
4F
  8
0
 10
210.7743466246523
 20
-57.22032170287272
 30
0.0
 11
206.7412100443043
 21
-53.32622340746138
 31
0.0
  0
LINE
  5
50
  8
0
 10
206.7412100443043
 20
-53.32622340746138
 30
0.0
 11
202.9060679073567
 21
-49.4405636073167
 31
0.0
  0
LINE
  5
51
  8
0
 10
201.820692169413
 20
-48.15700375567216
 30
0.0
 11
200.5652239810146
 21
-45.5761926927917
 31
0.0
  0
LINE
  5
52
  8
0
 10
200.5652239810146
 20
-45.5761926927917
 30
0.0
 11
199.2241988057465
 21
-41.72816955813138
 31
0.0
  0
LINE
  5
53
  8
0
 10
202.9060679073567
 20
-49.4405636073167
 30
0.0
 11
201.820692169413
 21
-48.15700375567216
 31
0.0
  0
LINE
  5
54
  8
0
 10
-61.24799746731595
 20
-47.87804523449667
 30
0.0
 11
-68.42763458804451
 21
-59.77734344615429
 31
0.0
  0
LINE
  5
55
  8
0
 10
199.2682389358654
 20
-30.26257590590855
 30
0.0
 11
169.7984295618786
 21
-29.97063333136039
 31
0.0
  0
LINE
  5
56
  8
0
 10
223.5745470056716
 20
-66.40295511680529
 30
0.0
 11
222.2196156853796
 21
-65.06171510975707
 31
0.0
  0
LINE
  5
57
  8
0
 10
199.2241988057465
 20
-41.72816955813138
 30
0.0
 11
198.5371058451285
 21
-37.89300437514525
 31
0.0
  0
LINE
  5
58
  8
0
 10
198.5371058451285
 20
-37.89300437514525
 30
0.0
 11
198.5571263560991
 21
-34.07120754331898
 31
0.0
  0
LINE
  5
59
  8
0
 10
198.5571263560991
 20
-34.07120754331898
 30
0.0
 11
199.2682389358654
 21
-30.26257590590855
 31
0.0
  0
LINE
  5
5A
  8
0
 10
232.5265707738245
 20
-76.80425826652954
 30
0.0
 11
232.9697986615887
 21
-72.92232493424555
 31
0.0
  0
LINE
  5
5B
  8
0
 10
232.9697986615887
 20
-72.92232493424555
 30
0.0
 11
228.9249895185238
 21
-69.00203515761044
 31
0.0
  0
LINE
  5
5C
  8
0
 10
228.9249895185238
 20
-69.00203515761044
 30
0.0
 11
223.5745470056716
 21
-66.40295511680529
 31
0.0
  0
LINE
  5
5D
  8
0
 10
222.0952801538564
 20
-84.49195978021872
 30
0.0
 11
224.7875466969041
 21
-81.87882488623046
 31
0.0
  0
LINE
  5
5E
  8
0
 10
224.7875466969041
 20
-81.87882488623046
 30
0.0
 11
227.6427652287788
 21
-80.64821807550861
 31
0.0
  0
LINE
  5
5F
  8
0
 10
227.6427652287788
 20
-80.64821807550861
 30
0.0
 11
232.5265707738245
 21
-76.80425826652954
 31
0.0
  0
LINE
  5
60
  8
0
 10
208.2345101548825
 20
-96.08981297409456
 30
0.0
 11
212.0281126989071
 21
-92.20908651828078
 31
0.0
  0
LINE
  5
61
  8
0
 10
169.7984295618786
 20
-29.97063333136039
 30
0.0
 11
171.8730643011445
 21
-107.5195346684397
 31
0.0
  0
LINE
  5
62
  8
0
 10
212.0281126989071
 20
-92.20908651828078
 30
0.0
 11
214.2742937838751
 21
-89.78683170453553
 31
0.0
  0
LINE
  5
63
  8
0
 10
205.4883482302202
 20
-99.04996584419945
 30
0.0
 11
208.2345101548825
 21
-96.08981297409456
 31
0.0
  0
LINE
  5
64
  8
0
 10
220.7833479334358
 20
181.0182816515299
 30
0.0
 11
208.1268595680857
 21
184.9449739317072
 31
0.0
  0
LINE
  5
65
  8
0
 10
168.0584109866006
 20
-9.243365389925298
 30
0.0
 11
233.3534346847407
 21
176.7394559499828
 31
0.0
  0
LINE
  5
66
  8
0
 10
160.8841815444248
 20
-6.685220045519964
 30
0.0
 11
168.0584109866006
 21
-9.243365389925298
 31
0.0
  0
LINE
  5
67
  8
0
 10
233.3534346847407
 20
176.7394559499828
 30
0.0
 11
220.7833479334358
 21
181.0182816515299
 31
0.0
  0
LINE
  5
68
  8
0
 10
-63.32475299647306
 20
184.6303747360075
 30
0.0
 11
-75.84305606633619
 21
180.674197777727
 31
0.0
  0
LINE
  5
69
  8
0
 10
52.45446626252485
 20
204.1924997203398
 30
0.0
 11
39.40972624650298
 21
203.4555845489603
 31
0.0
  0
LINE
  5
6A
  8
0
 10
-50.71576893918619
 20
188.2330312632798
 30
0.0
 11
-63.32475299647306
 21
184.6303747360075
 31
0.0
  0
LINE
  5
6B
  8
0
 10
169.7201737799355
 20
194.5978976723051
 30
0.0
 11
156.7991999562379
 21
197.1024306483131
 31
0.0
  0
LINE
  5
6C
  8
0
 10
94.34659483135299
 20
6.809274678068849
 30
0.0
 11
101.8502730422387
 21
6.168137907985102
 31
0.0
  0
LINE
  5
6D
  8
0
 10
65.51755292062744
 20
204.5685689203658
 30
0.0
 11
52.45446626252485
 21
204.1924997203398
 31
0.0
  0
LINE
  5
6E
  8
0
 10
130.8275852599779
 20
201.036008065065
 30
0.0
 11
117.7930468402589
 21
202.4635967648566
 31
0.0
  0
LINE
  5
6F
  8
0
 10
195.3920925868302
 20
188.5180246946182
 30
0.0
 11
182.5871633726962
 21
191.7360715398585
 31
0.0
  0
LINE
  5
70
  8
0
 10
104.7367457608031
 20
203.5309732216293
 30
0.0
 11
91.66671653038833
 21
204.2377436076737
 31
0.0
  0
LINE
  5
71
  8
0
 10
91.66671653038833
 20
204.2377436076737
 30
0.0
 11
78.59097605608305
 21
204.5836513085122
 31
0.0
  0
LINE
  5
72
  8
0
 10
78.59097605608305
 20
204.5836513085122
 30
0.0
 11
65.51755292062744
 21
204.5685689203658
 31
0.0
  0
LINE
  5
73
  8
0
 10
117.7930468402589
 20
202.4635967648566
 30
0.0
 11
104.7367457608031
 21
203.5309732216293
 31
0.0
  0
LINE
  5
74
  8
0
 10
-25.87467518960268
 20
-28.04884393882485
 30
0.0
 11
-39.22997679540418
 21
-31.48407503378953
 31
0.0
  0
LINE
  5
75
  8
0
 10
-12.10661176927617
 20
-28.15183196929177
 30
0.0
 11
-25.87467518960268
 21
-28.04884393882485
 31
0.0
  0
LINE
  5
76
  8
0
 10
0.4401358768530267
 20
-130.6126320400847
 30
0.0
 11
12.66342679639155
 21
-123.5856335578758
 31
0.0
  0
LINE
  5
77
  8
0
 10
12.66342679639155
 20
-123.5856335578758
 30
0.0
 11
22.62793619685102
 21
-113.6283639552004
 31
0.0
  0
LINE
  5
78
  8
0
 10
29.65878507741871
 20
-101.4849775468388
 30
0.0
 11
29.66317307823591
 21
-101.4516873702619
 31
0.0
  0
LINE
  5
79
  8
0
 10
-68.42763458804451
 20
-59.77734344615429
 30
0.0
 11
-72.32461332573779
 21
-73.1530559387067
 31
0.0
  0
LINE
  5
7A
  8
0
 10
-51.28958758471596
 20
-38.23838964664622
 30
0.0
 11
-61.24799746731595
 21
-47.87804523449667
 31
0.0
  0
LINE
  5
7B
  8
0
 10
88.39100888647346
 20
-121.208546378768
 30
0.0
 11
102.0668061653951
 21
-124.7723742792325
 31
0.0
  0
LINE
  5
7C
  8
0
 10
-39.22997679540418
 20
-31.48407503378953
 30
0.0
 11
-51.28958758471596
 21
-38.23838964664622
 31
0.0
  0
LINE
  5
7D
  8
0
 10
155.8793172809799
 20
169.686504894512
 30
0.0
 11
160.1564068841877
 21
172.3682088003284
 31
0.0
  0
LINE
  5
7E
  8
0
 10
171.5955010730809
 20
155.4945039929142
 30
0.0
 11
165.8181893375373
 21
158.4249322797536
 31
0.0
  0
LINE
  5
7F
  8
0
 10
-27.27745122967818
 20
-134.0947539660424
 30
0.0
 11
-13.1925826820895
 21
-134.2025365095627
 31
0.0
  0
LINE
  5
80
  8
0
 10
-62.60303911651796
 20
-112.9790407315557
 30
0.0
 11
-52.87637119893455
 21
-123.0852618407183
 31
0.0
  0
LINE
  5
81
  8
0
 10
125.5698688758129
 20
-94.79933230024223
 30
0.0
 11
118.9827844368421
 21
-98.61526865510152
 31
0.0
  0
LINE
  5
82
  8
0
 10
-72.32461332573779
 20
-73.1530559387067
 30
0.0
 11
-72.64677591940696
 21
-87.11041016731929
 31
0.0
  0
LINE
  5
83
  8
0
 10
-69.34053951471451
 20
-100.6994070406705
 30
0.0
 11
-62.60303911651796
 21
-112.9790407315557
 31
0.0
  0
LINE
  5
84
  8
0
 10
118.9827844368421
 20
-98.61526865510152
 30
0.0
 11
111.5853890907144
 21
-100.5625671695561
 31
0.0
  0
LINE
  5
85
  8
0
 10
-52.87637119893455
 20
-123.0852618407183
 30
0.0
 11
-40.82226061934554
 21
-130.2971335920402
 31
0.0
  0
LINE
  5
86
  8
0
 10
102.0668061653951
 20
-124.7723742792325
 30
0.0
 11
116.121080473845
 21
-124.6528852739876
 31
0.0
  0
LINE
  5
87
  8
0
 10
-72.64677591940696
 20
-87.11041016731929
 30
0.0
 11
-69.34053951471451
 21
-100.6994070406705
 31
0.0
  0
LINE
  5
88
  8
0
 10
116.121080473845
 20
-124.6528852739876
 30
0.0
 11
129.5638416448765
 21
-120.8587658466431
 31
0.0
  0
LINE
  5
89
  8
0
 10
98.89858343660428
 20
-19.14145455612191
 30
0.0
 11
85.72269794495695
 21
-22.77309438795533
 31
0.0
  0
LINE
  5
8A
  8
0
 10
85.72269794495695
 20
-22.77309438795533
 30
0.0
 11
73.98147416921219
 21
-29.69043940812841
 31
0.0
  0
LINE
  5
8B
  8
0
 10
196.1978408127276
 20
163.7063615657776
 30
0.0
 11
195.7080578225445
 21
160.2549621958736
 31
0.0
  0
LINE
  5
8C
  8
0
 10
148.3298563288237
 20
-38.74889288415912
 30
0.0
 11
138.2020359216446
 21
-29.15549449329611
 31
0.0
  0
LINE
  5
8D
  8
0
 10
78.20805290273039
 20
-67.25617857744288
 30
0.0
 11
80.11432208526021
 21
-59.90660366583766
 31
0.0
  0
LINE
  5
8E
  8
0
 10
65.91370898257212
 20
-104.3109454043007
 30
0.0
 11
76.05410714867517
 21
-114.2200675054692
 31
0.0
  0
LINE
  5
8F
  8
0
 10
80.33103394958958
 20
-82.33255146051188
 30
0.0
 11
78.2787153760996
 21
-74.90516298215515
 31
0.0
  0
LINE
  5
90
  8
0
 10
-40.82226061934554
 20
-130.2971335920402
 30
0.0
 11
-27.27745122967818
 21
-134.0947539660424
 31
0.0
  0
LINE
  5
91
  8
0
 10
129.5638416448765
 20
-120.8587658466431
 30
0.0
 11
141.4518611411418
 21
-113.6653258369675
 31
0.0
  0
LINE
  5
92
  8
0
 10
73.98147416921219
 20
-29.69043940812841
 30
0.0
 11
64.46036129409676
 21
-39.44897955172838
 31
0.0
  0
LINE
  5
93
  8
0
 10
126.0337380434591
 20
-22.43780695095196
 30
0.0
 11
112.637412448717
 21
-19.02726862364251
 31
0.0
  0
LINE
  5
94
  8
0
 10
141.4518611411418
 20
-113.6653258369675
 30
0.0
 11
150.9603602043097
 21
-103.5910671512892
 31
0.0
  0
LINE
  5
95
  8
0
 10
136.4128334394636
 20
-75.34675089454154
 30
0.0
 11
134.5896803549643
 21
-82.74535798872105
 31
0.0
  0
LINE
  5
96
  8
0
 10
112.637412448717
 20
-19.02726862364251
 30
0.0
 11
98.89858343660428
 21
-19.14145455612191
 31
0.0
  0
LINE
  5
97
  8
0
 10
177.2014248776916
 20
153.5828255915916
 30
0.0
 11
174.1865899190283
 21
154.701635624628
 31
0.0
  0
LINE
  5
98
  8
0
 10
76.05410714867517
 20
-114.2200675054692
 30
0.0
 11
88.39100888647346
 21
-121.208546378768
 31
0.0
  0
LINE
  5
99
  8
0
 10
111.5853890907144
 20
-100.5625671695561
 30
0.0
 11
103.8901106150848
 21
-100.503796036237
 31
0.0
  0
LINE
  5
9A
  8
0
 10
80.11432208526021
 20
-59.90660366583766
 30
0.0
 11
83.85938919762208
 21
-53.35232346731947
 31
0.0
  0
LINE
  5
9B
  8
0
 10
191.0263195702435
 20
154.7350703211388
 30
0.0
 11
187.2907473675057
 21
153.2114936886422
 31
0.0
  0
LINE
  5
9C
  8
0
 10
160.1564068841877
 20
172.3682088003284
 30
0.0
 11
165.5431904613167
 21
173.4001516362726
 31
0.0
  0
LINE
  5
9D
  8
0
 10
185.0309535557426
 20
174.6694690500587
 30
0.0
 11
189.8402874338983
 21
172.8943998302701
 31
0.0
  0
LINE
  5
9E
  8
0
 10
165.5431904613167
 20
173.4001516362726
 30
0.0
 11
167.09668794947
 21
174.1448259097425
 31
0.0
  0
LINE
  5
9F
  8
0
 10
195.35103685108
 20
167.1784327822741
 30
0.0
 11
196.1978408127276
 21
163.7063615657776
 31
0.0
  0
LINE
  5
A0
  8
0
 10
163.0537027264685
 20
160.7662544177873
 30
0.0
 11
160.3602309266401
 21
162.1091321464594
 31
0.0
  0
LINE
  5
A1
  8
0
 10
165.8181893375373
 20
158.4249322797536
 30
0.0
 11
163.0537027264685
 21
160.7662544177873
 31
0.0
  0
LINE
  5
A2
  8
0
 10
174.1865899190283
 20
154.701635624628
 30
0.0
 11
171.5955010730809
 21
155.4945039929142
 31
0.0
  0
LINE
  5
A3
  8
0
 10
187.2907473675057
 20
153.2114936886422
 30
0.0
 11
186.2874384739083
 21
153.0997337553041
 31
0.0
  0
LINE
  5
A4
  8
0
 10
189.8402874338983
 20
172.8943998302701
 30
0.0
 11
191.1519367303442
 21
172.0232642089589
 31
0.0
  0
LINE
  5
A5
  8
0
 10
193.9267088594549
 20
157.1629484772988
 30
0.0
 11
191.0263195702435
 21
154.7350703211388
 31
0.0
  0
LINE
  5
A6
  8
0
 10
186.2874384739083
 20
153.0997337553041
 30
0.0
 11
182.4145836820933
 21
152.8282948306874
 31
0.0
  0
LINE
  5
A7
  8
0
 10
182.4145836820933
 20
152.8282948306874
 30
0.0
 11
177.2014248776916
 21
153.5828255915916
 31
0.0
  0
LINE
  5
A8
  8
0
 10
160.3602309266401
 20
162.1091321464594
 30
0.0
 11
155.9460595534633
 21
166.1525552133203
 31
0.0
  0
LINE
  5
A9
  8
0
 10
155.9460595534633
 20
166.1525552133203
 30
0.0
 11
155.8793172809799
 21
169.686504894512
 31
0.0
  0
LINE
  5
AA
  8
0
 10
39.40972624650298
 20
203.4555845489603
 30
0.0
 11
26.39135610629302
 21
202.358092141515
 31
0.0
  0
LINE
  5
AB
  8
0
 10
179.8430624519855
 20
175.4165726175165
 30
0.0
 11
185.0309535557426
 21
174.6694690500587
 31
0.0
  0
LINE
  5
AC
  8
0
 10
178.869998009599
 20
175.3487239791345
 30
0.0
 11
179.8430624519855
 21
175.4165726175165
 31
0.0
  0
LINE
  5
AD
  8
0
 10
167.09668794947
 20
174.1448259097425
 30
0.0
 11
173.1802088572511
 21
175.3106204850023
 31
0.0
  0
LINE
  5
AE
  8
0
 10
143.8323175527823
 20
199.2487328355182
 30
0.0
 11
130.8275852599779
 21
201.036008065065
 31
0.0
  0
LINE
  5
AF
  8
0
 10
173.1802088572511
 20
175.3106204850023
 30
0.0
 11
178.869998009599
 21
175.3487239791345
 31
0.0
  0
LINE
  5
B0
  8
0
 10
193.2534013277311
 20
170.3319660184696
 30
0.0
 11
195.35103685108
 21
167.1784327822741
 31
0.0
  0
LINE
  5
B1
  8
0
 10
33.28599007596021
 20
-87.91224086188053
 30
0.0
 11
33.30416235981781
 21
-81.29147206238564
 31
0.0
  0
LINE
  5
B2
  8
0
 10
33.30416235981781
 20
-81.29147206238564
 30
0.0
 11
33.28841607415889
 21
-73.95007777036511
 31
0.0
  0
LINE
  5
B3
  8
0
 10
32.05240926912822
 20
-94.7277350634969
 30
0.0
 11
33.28599007596021
 21
-87.91224086188053
 31
0.0
  0
LINE
  5
B4
  8
0
 10
33.28841607415889
 20
-73.95007777036511
 30
0.0
 11
29.76520060621135
 21
-60.62648099292643
 31
0.0
  0
LINE
  5
B5
  8
0
 10
29.66317307823591
 20
-101.4516873702619
 30
0.0
 11
32.05240926912822
 21
-94.7277350634969
 31
0.0
  0
LINE
  5
B6
  8
0
 10
0.4657980879912302
 20
199.0831223778486
 30
0.0
 11
-12.42534110682029
 21
196.906853185382
 31
0.0
  0
LINE
  5
B7
  8
0
 10
13.19346703857196
 20
-38.84713287868929
 30
0.0
 11
13.06792545526784
 21
-38.72087002919076
 31
0.0
  0
LINE
  5
B8
  8
0
 10
13.06792545526784
 20
-38.72087002919076
 30
0.0
 11
1.166899602678954
 21
-31.78647537814865
 31
0.0
  0
LINE
  5
B9
  8
0
 10
1.166899602678954
 20
-31.78647537814865
 30
0.0
 11
-12.10661176927617
 21
-28.15183196929177
 31
0.0
  0
LINE
  5
BA
  8
0
 10
160.4759320663547
 20
-77.81668252817411
 30
0.0
 11
159.8804476645824
 21
-63.91487111366347
 31
0.0
  0
LINE
  5
BB
  8
0
 10
208.1268595680857
 20
184.9449739317072
 30
0.0
 11
195.3920925868302
 21
188.5180246946182
 31
0.0
  0
LINE
  5
BC
  8
0
 10
191.1519367303442
 20
172.0232642089589
 30
0.0
 11
193.2534013277311
 21
170.3319660184696
 31
0.0
  0
LINE
  5
BD
  8
0
 10
195.7080578225445
 20
160.2549621958736
 30
0.0
 11
193.9267088594549
 21
157.1629484772988
 31
0.0
  0
LINE
  5
BE
  8
0
 10
-25.25800721340272
 20
194.3724282007844
 30
0.0
 11
-38.02416824532753
 21
191.4807904318565
 31
0.0
  0
LINE
  5
BF
  8
0
 10
239.7990530997247
 20
164.4463547969626
 30
0.0
 11
233.3534346847407
 21
176.7394559499828
 31
0.0
  0
LINE
  5
C0
  8
0
 10
-13.1925826820895
 20
-134.2025365095627
 30
0.0
 11
0.4401358768530267
 21
-130.6126320400847
 31
0.0
  0
LINE
  5
C1
  8
0
 10
184.2219567269719
 20
-19.73483334951247
 30
0.0
 11
169.7984295618786
 21
-29.97063333136039
 31
0.0
  0
LINE
  5
C2
  8
0
 10
-38.02416824532753
 20
191.4807904318565
 30
0.0
 11
-50.71576893918619
 21
188.2330312632798
 31
0.0
  0
LINE
  5
C3
  8
0
 10
159.8804476645824
 20
-63.91487111366347
 30
0.0
 11
155.7287275968931
 21
-50.59526995976698
 31
0.0
  0
LINE
  5
C4
  8
0
 10
-12.42534110682029
 20
196.906853185382
 30
0.0
 11
-25.25800721340272
 21
194.3724282007844
 31
0.0
  0
LINE
  5
C5
  8
0
 10
22.62793619685102
 20
-113.6283639552004
 30
0.0
 11
29.65878507741871
 21
-101.4849775468388
 31
0.0
  0
LINE
  5
C6
  8
0
 10
101.8502730422387
 20
6.168137907985102
 30
0.0
 11
109.3388671215532
 21
5.310843533650405
 31
0.0
  0
LINE
  5
C7
  8
0
 10
29.76520060621135
 20
-60.62648099292643
 30
0.0
 11
22.89410288274521
 21
-48.63174025382851
 31
0.0
  0
LINE
  5
C8
  8
0
 10
156.7991999562379
 20
197.1024306483131
 30
0.0
 11
143.8323175527823
 21
199.2487328355182
 31
0.0
  0
LINE
  5
C9
  8
0
 10
13.40737278820355
 20
200.9004256018903
 30
0.0
 11
0.4657980879912302
 21
199.0831223778486
 31
0.0
  0
LINE
  5
CA
  8
0
 10
181.6504546913076
 20
-2.338730043903645
 30
0.0
 11
239.7990530997247
 21
164.4463547969626
 31
0.0
  0
LINE
  5
CB
  8
0
 10
26.39135610629302
 20
202.358092141515
 30
0.0
 11
13.40737278820355
 21
200.9004256018903
 31
0.0
  0
LINE
  5
CC
  8
0
 10
155.7287275968931
 20
-50.59526995976698
 30
0.0
 11
148.3298563288237
 21
-38.74889288415912
 31
0.0
  0
LINE
  5
CD
  8
0
 10
57.80896043992138
 20
-51.41474652282967
 30
0.0
 11
54.49671781410764
 21
-64.79935260336038
 31
0.0
  0
LINE
  5
CE
  8
0
 10
41.85225381853732
 20
5.22943399590066
 30
0.0
 11
49.3102994685696
 21
6.104771964205053
 31
0.0
  0
LINE
  5
CF
  8
0
 10
-75.84305606633619
 20
180.674197777727
 30
0.0
 11
-9.267728178415085
 21
-6.891011176441661
 31
0.0
  0
LINE
  5
D0
  8
0
 10
54.77680070950587
 20
-78.70646962005101
 30
0.0
 11
58.66165535908642
 21
-92.18850732601254
 31
0.0
  0
LINE
  5
D1
  8
0
 10
199.2682389358654
 20
-30.26257590590855
 30
0.0
 11
184.2219567269719
 21
-19.73483334951247
 31
0.0
  0
LINE
  5
D2
  8
0
 10
54.49671781410764
 20
-64.79935260336038
 30
0.0
 11
54.77680070950587
 21
-78.70646962005101
 31
0.0
  0
LINE
  5
D3
  8
0
 10
138.2020359216446
 20
-29.15549449329611
 30
0.0
 11
126.0337380434591
 21
-22.43780695095196
 31
0.0
  0
LINE
  5
D4
  8
0
 10
96.43103533650903
 20
-98.44310621055372
 30
0.0
 11
89.72486585074934
 21
-94.52591020490553
 31
0.0
  0
LINE
  5
D5
  8
0
 10
83.85938919762208
 20
-53.35232346731947
 30
0.0
 11
89.1833142244292
 21
-48.03166271297859
 31
0.0
  0
LINE
  5
D6
  8
0
 10
136.2466332257256
 20
-67.69631643942199
 30
0.0
 11
136.4128334394636
 21
-75.34675089454154
 31
0.0
  0
LINE
  5
D7
  8
0
 10
78.2787153760996
 20
-74.90516298215515
 30
0.0
 11
78.20805290273039
 21
-67.25617857744288
 31
0.0
  0
LINE
  5
D8
  8
0
 10
103.8901106150848
 20
-100.503796036237
 30
0.0
 11
96.43103533650903
 21
-98.44310621055372
 31
0.0
  0
LINE
  5
D9
  8
0
 10
89.72486585074934
 20
-94.52591020490553
 30
0.0
 11
84.23345875344833
 21
-89.02761669635068
 31
0.0
  0
LINE
  5
DA
  8
0
 10
130.1624130676628
 20
-53.70240862020063
 30
0.0
 11
134.1119531859014
 21
-60.31544853653552
 31
0.0
  0
LINE
  5
DB
  8
0
 10
89.1833142244292
 20
-48.03166271297859
 30
0.0
 11
95.72328517692041
 21
-44.29775677421384
 31
0.0
  0
LINE
  5
DC
  8
0
 10
110.6380523605632
 20
-42.45430292370304
 30
0.0
 11
118.0140097499724
 21
-44.46595737511728
 31
0.0
  0
LINE
  5
DD
  8
0
 10
103.0383172050154
 20
-42.39698193817523
 30
0.0
 11
110.6380523605632
 21
-42.45430292370304
 31
0.0
  0
LINE
  5
DE
  8
0
 10
118.0140097499724
 20
-44.46595737511728
 30
0.0
 11
124.6717568601605
 21
-48.29967287865063
 31
0.0
  0
LINE
  5
DF
  8
0
 10
95.72328517692041
 20
-44.29775677421384
 30
0.0
 11
103.0383172050154
 21
-42.39698193817523
 31
0.0
  0
LINE
  5
E0
  8
0
 10
124.6717568601605
 20
-48.29967287865063
 30
0.0
 11
130.1624130676628
 21
-53.70240862020063
 31
0.0
  0
LINE
  5
E1
  8
0
 10
134.1119531859014
 20
-60.31544853653552
 30
0.0
 11
136.2466332257256
 21
-67.69631643942199
 31
0.0
  0
LINE
  5
E2
  8
0
 10
-31.43486276683621
 20
-73.42461133676647
 30
0.0
 11
-29.17603688711447
 21
-70.56268087087297
 31
0.0
  0
LINE
  5
E3
  8
0
 10
-26.63821953503562
 20
-92.58752610674655
 30
0.0
 11
-29.49667249972411
 21
-90.3270882324097
 31
0.0
  0
LINE
  5
E4
  8
0
 10
-23.28817129596436
 20
-94.02514311066422
 30
0.0
 11
-26.63821953503562
 21
-92.58752610674655
 31
0.0
  0
LINE
  5
E5
  8
0
 10
-7.48573392780193
 20
-87.64165130478362
 30
0.0
 11
-9.73946346353798
 21
-90.52464648931759
 31
0.0
  0
LINE
  5
E6
  8
0
 10
-9.73946346353798
 20
-90.52464648931759
 30
0.0
 11
-12.66108783382362
 21
-92.72735406319099
 31
0.0
  0
LINE
  5
E7
  8
0
 10
-6.052969504374905
 20
-84.2769493348354
 30
0.0
 11
-7.48573392780193
 21
-87.64165130478362
 31
0.0
  0
LINE
  5
E8
  8
0
 10
-29.49667249972411
 20
-90.3270882324097
 30
0.0
 11
-31.66822741291165
 21
-87.39999316141099
 31
0.0
  0
LINE
  5
E9
  8
0
 10
-31.66822741291165
 20
-87.39999316141099
 30
0.0
 11
-33.00551589693126
 21
-84.00780499070626
 31
0.0
  0
LINE
  5
EA
  8
0
 10
-12.35578144516125
 20
-68.51919755200369
 30
0.0
 11
-9.502424657632874
 21
-70.7585706117381
 31
0.0
  0
LINE
  5
EB
  8
0
 10
-15.69089908910095
 20
-67.0972227313005
 30
0.0
 11
-12.35578144516125
 21
-68.51919755200369
 31
0.0
  0
LINE
  5
EC
  8
0
 10
-12.66108783382362
 20
-92.72735406319099
 30
0.0
 11
-16.05090246363517
 21
-94.09756744397804
 31
0.0
  0
LINE
  5
ED
  8
0
 10
-5.971807704842273
 20
-77.04197949787988
 30
0.0
 11
-5.537307513448282
 21
-80.66139533628943
 31
0.0
  0
LINE
  5
EE
  8
0
 10
-16.05090246363517
 20
-94.09756744397804
 30
0.0
 11
-19.67632154517781
 21
-94.54039914821621
 31
0.0
  0
LINE
  5
EF
  8
0
 10
-32.88255585434072
 20
-76.77366940648345
 30
0.0
 11
-31.43486276683621
 21
-73.42461133676647
 31
0.0
  0
LINE
  5
F0
  8
0
 10
-19.67632154517781
 20
-94.54039914821621
 30
0.0
 11
-23.28817129596436
 21
-94.02514311066422
 31
0.0
  0
LINE
  5
F1
  8
0
 10
-26.2605141077729
 20
-68.38081459488454
 30
0.0
 11
-22.88636938153237
 21
-67.02563457278508
 31
0.0
  0
LINE
  5
F2
  8
0
 10
-22.88636938153237
 20
-67.02563457278508
 30
0.0
 11
-19.28198262547428
 21
-66.58800015066333
 31
0.0
  0
LINE
  5
F3
  8
0
 10
-29.17603688711447
 20
-70.56268087087297
 30
0.0
 11
-26.2605141077729
 21
-68.38081459488454
 31
0.0
  0
LINE
  5
F4
  8
0
 10
-5.537307513448282
 20
-80.66139533628943
 30
0.0
 11
-6.052969504374905
 21
-84.2769493348354
 31
0.0
  0
LINE
  5
F5
  8
0
 10
-19.28198262547428
 20
-66.58800015066333
 30
0.0
 11
-15.69089908910095
 21
-67.0972227313005
 31
0.0
  0
LINE
  5
F6
  8
0
 10
-9.502424657632874
 20
-70.7585706117381
 30
0.0
 11
-7.324766055699153
 21
-73.66482259463541
 31
0.0
  0
LINE
  5
F7
  8
0
 10
-7.324766055699153
 20
-73.66482259463541
 30
0.0
 11
-5.971807704842273
 21
-77.04197949787988
 31
0.0
  0
LINE
  5
F8
  8
0
 10
-33.41898390116418
 20
-80.38319005151443
 30
0.0
 11
-32.88255585434072
 21
-76.77366940648345
 31
0.0
  0
LINE
  5
F9
  8
0
 10
-33.00551589693126
 20
-84.00780499070626
 30
0.0
 11
-33.41898390116418
 21
-80.38319005151443
 31
0.0
  0
LINE
  5
FA
  8
0
 10
13.19346703857196
 20
-38.84713287868929
 30
0.0
 11
22.89410288274521
 21
-48.63174025382851
 31
0.0
  0
LINE
  5
FB
  8
0
 10
130.8930374636716
 20
-89.38311553856369
 30
0.0
 11
125.5698688758129
 21
-94.79933230024223
 31
0.0
  0
LINE
  5
FC
  8
0
 10
153.6519099928508
 20
-4.335734565227779
 30
0.0
 11
160.8841815444248
 21
-6.685220045519964
 31
0.0
  0
LINE
  5
FD
  8
0
 10
146.3669251386786
 20
-2.196291668922387
 30
0.0
 11
153.6519099928508
 21
-4.335734565227779
 31
0.0
  0
LINE
  5
FE
  8
0
 10
-9.267728178415085
 20
-6.891011176441661
 30
0.0
 11
-2.11864971648239
 21
-4.524035579449263
 31
0.0
  0
LINE
  5
FF
  8
0
 10
-2.11864971648239
 20
-4.524035579449263
 30
0.0
 11
5.090554079794991
 21
-2.366991439483702
 31
0.0
  0
LINE
  5
100
  8
0
 10
64.28910924164562
 20
7.206698010606062
 30
0.0
 11
56.7910475056411
 21
6.763986394982612
 31
0.0
  0
LINE
  5
101
  8
0
 10
131.6602198410471
 20
1.447580070130513
 30
0.0
 11
124.2492307956148
 21
2.949878412480772
 31
0.0
  0
LINE
  5
102
  8
0
 10
124.2492307956148
 20
2.949878412480772
 30
0.0
 11
116.8069853597864
 21
4.23788259536575
 31
0.0
  0
LINE
  5
103
  8
0
 10
131.6602198410471
 20
1.447580070130513
 30
0.0
 11
139.034572860791
 21
-0.2681436228168881
 31
0.0
  0
LINE
  5
104
  8
0
 10
86.83323815913513
 20
7.233881135764848
 30
0.0
 11
94.34659483135299
 21
6.809274678068849
 31
0.0
  0
LINE
  5
105
  8
0
 10
86.83323815913513
 20
7.233881135764848
 30
0.0
 11
79.31560594379697
 21
7.441711688118287
 31
0.0
  0
LINE
  5
106
  8
0
 10
71.79909493413227
 20
7.432649340417919
 30
0.0
 11
79.31560594379697
 21
7.441711688118287
 31
0.0
  0
LINE
  5
107
  8
0
 10
71.79909493413227
 20
7.432649340417919
 30
0.0
 11
64.28910924164562
 21
7.206698010606062
 31
0.0
  0
LINE
  5
108
  8
0
 10
139.034572860791
 20
-0.2681436228168881
 30
0.0
 11
146.3669251386786
 21
-2.196291668922387
 31
0.0
  0
LINE
  5
109
  8
0
 10
80.33103394958958
 20
-82.33255146051188
 30
0.0
 11
84.23345875344833
 21
-89.02761669635068
 31
0.0
  0
LINE
  5
10A
  8
0
 10
56.7910475056411
 20
6.763986394982612
 30
0.0
 11
49.3102994685696
 21
6.104771964205053
 31
0.0
  0
LINE
  5
10B
  8
0
 10
182.5871633726962
 20
191.7360715398585
 30
0.0
 11
169.7201737799355
 21
194.5978976723051
 31
0.0
  0
LINE
  5
10C
  8
0
 10
109.3388671215532
 20
5.310843533650405
 30
0.0
 11
116.8069853597864
 21
4.23788259536575
 31
0.0
  0
LINE
  5
10D
  8
0
 10
41.85225381853732
 20
5.22943399590066
 30
0.0
 11
34.42229471045103
 21
4.138479859231342
 31
0.0
  0
LINE
  5
10E
  8
0
 10
34.42229471045103
 20
4.138479859231342
 30
0.0
 11
27.02579073826341
 21
2.832538665173833
 31
0.0
  0
LINE
  5
10F
  8
0
 10
12.35457782239753
 20
-0.421143407141402
 30
0.0
 11
5.090554079794991
 21
-2.366991439483702
 31
0.0
  0
LINE
  5
110
  8
0
 10
12.35457782239753
 20
-0.421143407141402
 30
0.0
 11
19.66810264878723
 21
1.312369728580889
 31
0.0
  0
LINE
  5
111
  8
0
 10
19.66810264878723
 20
1.312369728580889
 30
0.0
 11
27.02579073826341
 21
2.832538665173833
 31
0.0
  0
LINE
  5
112
  8
0
 10
134.5896803549643
 20
-82.74535798872105
 30
0.0
 11
130.8930374636716
 21
-89.38311553856369
 31
0.0
  0
ENDSEC
  0
EOF
