  0
SECTION
  2
HEADER
  9
$ACADVER
  1
AC1009
  0
ENDSEC
  0
SECTION
  2
BLOCKS
  0
ENDSEC
  0
SECTION
  2
ENTITIES
  0
LINE
  8
CutLine
  6
CONTINUOUS
 62
8
 10
108.988348
 20
38.561185
 11
105.321190
 21
42.846468
  0
LINE
  8
CutLine
  6
CONTINUOUS
 62
8
 10
105.321190
 20
42.846468
 11
105.321190
 21
42.846468
  0
LINE
  8
CutLine
  6
CONTINUOUS
 62
8
 10
105.321190
 20
42.846468
 11
107.224348
 21
37.537072
  0
LINE
  8
CutLine
  6
CONTINUOUS
 62
8
 10
107.224348
 20
37.537072
 11
103.588855
 21
41.840737
  0
LINE
  8
CutLine
  6
CONTINUOUS
 62
8
 10
103.588855
 20
41.840737
 11
103.588855
 21
41.840737
  0
LINE
  8
CutLine
  6
CONTINUOUS
 62
8
 10
103.588855
 20
41.840737
 11
105.523682
 21
36.549727
  0
LINE
  8
CutLine
  6
CONTINUOUS
 62
8
 10
105.523682
 20
36.549727
 11
103.090589
 21
41.638121
  0
LINE
  8
CutLine
  6
CONTINUOUS
 62
8
 10
103.090589
 20
41.638121
 11
103.090589
 21
41.638121
  0
LINE
  8
CutLine
  6
CONTINUOUS
 62
8
 10
103.090589
 20
41.638121
 11
103.554729
 21
36.017065
  0
LINE
  8
CutLine
  6
CONTINUOUS
 62
8
 10
103.554729
 20
36.017065
 11
101.156986
 21
41.115023
  0
LINE
  8
CutLine
  6
CONTINUOUS
 62
8
 10
101.156986
 20
41.115023
 11
101.156986
 21
41.115023
  0
LINE
  8
CutLine
  6
CONTINUOUS
 62
8
 10
101.156986
 20
41.115023
 11
101.656468
 21
35.503529
  0
LINE
  8
CutLine
  6
CONTINUOUS
 62
8
 10
101.656468
 20
35.503529
 11
100.623254
 21
41.048271
  0
LINE
  8
CutLine
  6
CONTINUOUS
 62
8
 10
100.623254
 20
41.048271
 11
100.623254
 21
41.048271
  0
LINE
  8
CutLine
  6
CONTINUOUS
 62
8
 10
100.623254
 20
41.048271
 11
99.616742
 21
35.498620
  0
LINE
  8
CutLine
  6
CONTINUOUS
 62
8
 10
99.616742
 20
35.498620
 11
98.620145
 21
41.043450
  0
LINE
  8
CutLine
  6
CONTINUOUS
 62
8
 10
98.620145
 20
41.043450
 11
98.620145
 21
41.043450
  0
LINE
  8
CutLine
  6
CONTINUOUS
 62
8
 10
98.620145
 20
41.043450
 11
97.650249
 21
35.493887
  0
LINE
  8
CutLine
  6
CONTINUOUS
 62
8
 10
97.650249
 20
35.493887
 11
98.087327
 21
41.117112
  0
LINE
  8
CutLine
  6
CONTINUOUS
 62
8
 10
98.087327
 20
41.117112
 11
98.087327
 21
41.117112
  0
LINE
  8
CutLine
  6
CONTINUOUS
 62
8
 10
98.087327
 20
41.117112
 11
95.678755
 21
36.017065
  0
LINE
  8
CutLine
  6
CONTINUOUS
 62
8
 10
95.678755
 20
36.017065
 11
96.151226
 21
41.630898
  0
LINE
  8
CutLine
  6
CONTINUOUS
 62
8
 10
96.151226
 20
41.630898
 11
96.151226
 21
41.630898
  0
LINE
  8
CutLine
  6
CONTINUOUS
 62
8
 10
96.151226
 20
41.630898
 11
93.778045
 21
36.521459
  0
LINE
  8
CutLine
  6
CONTINUOUS
 62
8
 10
93.778045
 20
36.521459
 11
95.655629
 21
41.839953
  0
LINE
  8
CutLine
  6
CONTINUOUS
 62
8
 10
95.655629
 20
41.839953
 11
95.655629
 21
41.839953
  0
LINE
  8
CutLine
  6
CONTINUOUS
 62
8
 10
95.655629
 20
41.839953
 11
92.009136
 21
37.537072
  0
LINE
  8
CutLine
  6
CONTINUOUS
 62
8
 10
92.009136
 20
37.537072
 11
93.918472
 21
42.837335
  0
LINE
  8
CutLine
  6
CONTINUOUS
 62
8
 10
93.918472
 20
42.837335
 11
93.918472
 21
42.837335
  0
LINE
  8
CutLine
  6
CONTINUOUS
 62
8
 10
93.918472
 20
42.837335
 11
90.303737
 21
38.516219
  0
LINE
  8
CutLine
  6
CONTINUOUS
 62
8
 10
90.303737
 20
38.516219
 11
93.493873
 21
43.167534
  0
LINE
  8
CutLine
  6
CONTINUOUS
 62
8
 10
93.493873
 20
43.167534
 11
93.493873
 21
43.167534
  0
LINE
  8
CutLine
  6
CONTINUOUS
 62
8
 10
93.493873
 20
43.167534
 11
88.857963
 21
39.955052
  0
LINE
  8
CutLine
  6
CONTINUOUS
 62
8
 10
88.857963
 20
39.955052
 11
92.074048
 21
44.580541
  0
LINE
  8
CutLine
  6
CONTINUOUS
 62
8
 10
92.074048
 20
44.580541
 11
92.074048
 21
44.580541
  0
LINE
  8
CutLine
  6
CONTINUOUS
 62
8
 10
92.074048
 20
44.580541
 11
87.464096
 21
41.342226
  0
LINE
  8
CutLine
  6
CONTINUOUS
 62
8
 10
85.452637
 20
44.806892
 11
90.541031
 21
47.239985
  0
LINE
  8
CutLine
  6
CONTINUOUS
 62
8
 10
90.541031
 20
47.239985
 11
90.541031
 21
47.239985
  0
LINE
  8
CutLine
  6
CONTINUOUS
 62
8
 10
90.541031
 20
47.239985
 11
84.919975
 21
46.775845
  0
LINE
  8
CutLine
  6
CONTINUOUS
 62
8
 10
84.919975
 20
46.775845
 11
90.017933
 21
49.173588
  0
LINE
  8
CutLine
  6
CONTINUOUS
 62
8
 10
90.017933
 20
49.173588
 11
90.017933
 21
49.173588
  0
LINE
  8
CutLine
  6
CONTINUOUS
 62
8
 10
90.017933
 20
49.173588
 11
84.406439
 21
48.674106
  0
LINE
  8
CutLine
  6
CONTINUOUS
 62
8
 10
84.406439
 20
48.674106
 11
89.951181
 21
49.707320
  0
LINE
  8
CutLine
  6
CONTINUOUS
 62
8
 10
89.951181
 20
49.707320
 11
89.951181
 21
49.707320
  0
LINE
  8
CutLine
  6
CONTINUOUS
 62
8
 10
89.951181
 20
49.707320
 11
84.401530
 21
50.713832
  0
LINE
  8
CutLine
  6
CONTINUOUS
 62
8
 10
84.401530
 20
50.713832
 11
89.946360
 21
51.710429
  0
LINE
  8
CutLine
  6
CONTINUOUS
 62
8
 10
89.946360
 20
51.710429
 11
89.946360
 21
51.710429
  0
LINE
  8
CutLine
  6
CONTINUOUS
 62
8
 10
89.946360
 20
51.710429
 11
84.396797
 21
52.680324
  0
LINE
  8
CutLine
  6
CONTINUOUS
 62
8
 10
84.396797
 20
52.680324
 11
90.020022
 21
52.243246
  0
LINE
  8
CutLine
  6
CONTINUOUS
 62
8
 10
90.020022
 20
52.243246
 11
90.020022
 21
52.243246
  0
LINE
  8
CutLine
  6
CONTINUOUS
 62
8
 10
90.020022
 20
52.243246
 11
84.919975
 21
54.651818
  0
LINE
  8
CutLine
  6
CONTINUOUS
 62
8
 10
84.919975
 20
54.651818
 11
90.533808
 21
54.179348
  0
LINE
  8
CutLine
  6
CONTINUOUS
 62
8
 10
90.533808
 20
54.179348
 11
90.533808
 21
54.179348
  0
LINE
  8
CutLine
  6
CONTINUOUS
 62
8
 10
90.533808
 20
54.179348
 11
85.424370
 21
56.552529
  0
LINE
  8
CutLine
  6
CONTINUOUS
 62
8
 10
85.424370
 20
56.552529
 11
90.742863
 21
54.674945
  0
LINE
  8
CutLine
  6
CONTINUOUS
 62
8
 10
90.742863
 20
54.674945
 11
90.742863
 21
54.674945
  0
LINE
  8
CutLine
  6
CONTINUOUS
 62
8
 10
90.742863
 20
54.674945
 11
86.439982
 21
58.321438
  0
LINE
  8
CutLine
  6
CONTINUOUS
 62
8
 10
86.439982
 20
58.321438
 11
91.740245
 21
56.412102
  0
LINE
  8
CutLine
  6
CONTINUOUS
 62
8
 10
91.740245
 20
56.412102
 11
91.740245
 21
56.412102
  0
LINE
  8
CutLine
  6
CONTINUOUS
 62
8
 10
91.740245
 20
56.412102
 11
87.419129
 21
60.026836
  0
LINE
  8
CutLine
  6
CONTINUOUS
 62
8
 10
87.419129
 20
60.026836
 11
92.070445
 21
56.836701
  0
LINE
  8
CutLine
  6
CONTINUOUS
 62
8
 10
92.070445
 20
56.836701
 11
92.070445
 21
56.836701
  0
LINE
  8
CutLine
  6
CONTINUOUS
 62
8
 10
92.070445
 20
56.836701
 11
88.857963
 21
61.472611
  0
LINE
  8
CutLine
  6
CONTINUOUS
 62
8
 10
88.857963
 20
61.472611
 11
93.483452
 21
58.256526
  0
LINE
  8
CutLine
  6
CONTINUOUS
 62
8
 10
93.483452
 20
58.256526
 11
93.483452
 21
58.256526
  0
LINE
  8
CutLine
  6
CONTINUOUS
 62
8
 10
93.483452
 20
58.256526
 11
90.245136
 21
62.866478
  0
LINE
  8
CutLine
  6
CONTINUOUS
 62
8
 10
90.245136
 20
62.866478
 11
93.912294
 21
58.581195
  0
LINE
  8
CutLine
  6
CONTINUOUS
 62
8
 10
93.912294
 20
58.581195
 11
93.912294
 21
58.581195
  0
LINE
  8
CutLine
  6
CONTINUOUS
 62
8
 10
93.912294
 20
58.581195
 11
92.009136
 21
63.890591
  0
LINE
  8
CutLine
  6
CONTINUOUS
 62
8
 10
92.009136
 20
63.890591
 11
95.644629
 21
59.586926
  0
LINE
  8
CutLine
  6
CONTINUOUS
 62
8
 10
95.644629
 20
59.586926
 11
95.644629
 21
59.586926
  0
LINE
  8
CutLine
  6
CONTINUOUS
 62
8
 10
95.644629
 20
59.586926
 11
93.709803
 21
64.877936
  0
LINE
  8
CutLine
  6
CONTINUOUS
 62
8
 10
93.709803
 20
64.877936
 11
96.142896
 21
59.789542
  0
LINE
  8
CutLine
  6
CONTINUOUS
 62
8
 10
96.142896
 20
59.789542
 11
96.142896
 21
59.789542
  0
LINE
  8
CutLine
  6
CONTINUOUS
 62
8
 10
96.142896
 20
59.789542
 11
95.678755
 21
65.410598
  0
LINE
  8
CutLine
  6
CONTINUOUS
 62
8
 10
95.678755
 20
65.410598
 11
98.076499
 21
60.312640
  0
LINE
  8
CutLine
  6
CONTINUOUS
 62
8
 10
98.076499
 20
60.312640
 11
98.076499
 21
60.312640
  0
LINE
  8
CutLine
  6
CONTINUOUS
 62
8
 10
98.076499
 20
60.312640
 11
97.577017
 21
65.924134
  0
LINE
  8
CutLine
  6
CONTINUOUS
 62
8
 10
97.577017
 20
65.924134
 11
99.593477
 21
60.381759
  0
LINE
  8
CutLine
  6
CONTINUOUS
 62
8
 10
99.593477
 20
60.381759
 11
99.593477
 21
60.381759
  0
LINE
  8
CutLine
  6
CONTINUOUS
 62
8
 10
99.593477
 20
60.381759
 11
101.583235
 21
65.933776
  0
LINE
  8
CutLine
  6
CONTINUOUS
 62
8
 10
101.583235
 20
65.933776
 11
101.146157
 21
60.310552
  0
LINE
  8
CutLine
  6
CONTINUOUS
 62
8
 10
101.146157
 20
60.310552
 11
101.146157
 21
60.310552
  0
LINE
  8
CutLine
  6
CONTINUOUS
 62
8
 10
101.146157
 20
60.310552
 11
103.554729
 21
65.410598
  0
LINE
  8
CutLine
  6
CONTINUOUS
 62
8
 10
103.554729
 20
65.410598
 11
103.082259
 21
59.796765
  0
LINE
  8
CutLine
  6
CONTINUOUS
 62
8
 10
103.082259
 20
59.796765
 11
103.082259
 21
59.796765
  0
LINE
  8
CutLine
  6
CONTINUOUS
 62
8
 10
103.082259
 20
59.796765
 11
105.455439
 21
64.906204
  0
LINE
  8
CutLine
  6
CONTINUOUS
 62
8
 10
105.455439
 20
64.906204
 11
103.577855
 21
59.587710
  0
LINE
  8
CutLine
  6
CONTINUOUS
 62
8
 10
103.577855
 20
59.587710
 11
103.577855
 21
59.587710
  0
LINE
  8
CutLine
  6
CONTINUOUS
 62
8
 10
103.577855
 20
59.587710
 11
107.224348
 21
63.890591
  0
LINE
  8
CutLine
  6
CONTINUOUS
 62
8
 10
107.224348
 20
63.890591
 11
105.315012
 21
58.590329
  0
LINE
  8
CutLine
  6
CONTINUOUS
 62
8
 10
105.315012
 20
58.590329
 11
105.315012
 21
58.590329
  0
LINE
  8
CutLine
  6
CONTINUOUS
 62
8
 10
105.315012
 20
58.590329
 11
108.929747
 21
62.911444
  0
LINE
  8
CutLine
  6
CONTINUOUS
 62
8
 10
108.929747
 20
62.911444
 11
105.739612
 21
58.260129
  0
LINE
  8
CutLine
  6
CONTINUOUS
 62
8
 10
105.739612
 20
58.260129
 11
105.739612
 21
58.260129
  0
LINE
  8
CutLine
  6
CONTINUOUS
 62
8
 10
105.739612
 20
58.260129
 11
110.375521
 21
61.472611
  0
LINE
  8
CutLine
  6
CONTINUOUS
 62
8
 10
110.375521
 20
61.472611
 11
107.159436
 21
56.847122
  0
LINE
  8
CutLine
  6
CONTINUOUS
 62
8
 10
107.159436
 20
56.847122
 11
107.159436
 21
56.847122
  0
LINE
  8
CutLine
  6
CONTINUOUS
 62
8
 10
107.159436
 20
56.847122
 11
111.769389
 21
60.085438
  0
LINE
  8
CutLine
  6
CONTINUOUS
 62
8
 10
111.769389
 20
60.085438
 11
107.484106
 21
56.418280
  0
LINE
  8
CutLine
  6
CONTINUOUS
 62
8
 10
107.484106
 20
56.418280
 11
107.484106
 21
56.418280
  0
LINE
  8
CutLine
  6
CONTINUOUS
 62
8
 10
107.484106
 20
56.418280
 11
112.793502
 21
58.321438
  0
LINE
  8
CutLine
  6
CONTINUOUS
 62
8
 10
112.793502
 20
58.321438
 11
108.489836
 21
54.685944
  0
LINE
  8
CutLine
  6
CONTINUOUS
 62
8
 10
108.489836
 20
54.685944
 11
108.489836
 21
54.685944
  0
LINE
  8
CutLine
  6
CONTINUOUS
 62
8
 10
108.489836
 20
54.685944
 11
113.780847
 21
56.620771
  0
LINE
  8
CutLine
  6
CONTINUOUS
 62
8
 10
113.780847
 20
56.620771
 11
108.692453
 21
54.187678
  0
LINE
  8
CutLine
  6
CONTINUOUS
 62
8
 10
108.692453
 20
54.187678
 11
108.692453
 21
54.187678
  0
LINE
  8
CutLine
  6
CONTINUOUS
 62
8
 10
108.692453
 20
54.187678
 11
114.313509
 21
54.651818
  0
LINE
  8
CutLine
  6
CONTINUOUS
 62
8
 10
114.313509
 20
54.651818
 11
109.215551
 21
52.254075
  0
LINE
  8
CutLine
  6
CONTINUOUS
 62
8
 10
109.215551
 20
52.254075
 11
109.215551
 21
52.254075
  0
LINE
  8
CutLine
  6
CONTINUOUS
 62
8
 10
109.215551
 20
52.254075
 11
114.827045
 21
52.753557
  0
LINE
  8
CutLine
  6
CONTINUOUS
 62
8
 10
114.836687
 20
48.747339
 11
109.213462
 21
49.184417
  0
LINE
  8
CutLine
  6
CONTINUOUS
 62
8
 10
109.213462
 20
49.184417
 11
109.213462
 21
49.184417
  0
LINE
  8
CutLine
  6
CONTINUOUS
 62
8
 10
109.213462
 20
49.184417
 11
114.313509
 21
46.775845
  0
LINE
  8
CutLine
  6
CONTINUOUS
 62
8
 10
114.313509
 20
46.775845
 11
108.699676
 21
47.248315
  0
LINE
  8
CutLine
  6
CONTINUOUS
 62
8
 10
108.699676
 20
47.248315
 11
108.699676
 21
47.248315
  0
LINE
  8
CutLine
  6
CONTINUOUS
 62
8
 10
108.699676
 20
47.248315
 11
113.809114
 21
44.875134
  0
LINE
  8
CutLine
  6
CONTINUOUS
 62
8
 10
36.911679
 20
17.582247
 11
41.875106
 21
13.178540
  0
LINE
  8
CutLine
  6
CONTINUOUS
 62
8
 10
41.875106
 20
13.178540
 11
41.875106
 21
13.178540
  0
LINE
  8
CutLine
  6
CONTINUOUS
 62
8
 10
41.875106
 20
13.178540
 11
43.940860
 21
19.484164
  0
LINE
  8
CutLine
  6
CONTINUOUS
 62
8
 10
29.629761
 20
17.564424
 11
33.284297
 21
12.026139
  0
LINE
  8
CutLine
  6
CONTINUOUS
 62
8
 10
33.284297
 20
12.026139
 11
33.284297
 21
12.026139
  0
LINE
  8
CutLine
  6
CONTINUOUS
 62
8
 10
33.284297
 20
12.026139
 11
36.911679
 21
17.582247
  0
LINE
  8
CutLine
  6
CONTINUOUS
 62
8
 10
22.591355
 20
19.431905
 11
24.687954
 21
13.136470
  0
LINE
  8
CutLine
  6
CONTINUOUS
 62
8
 10
24.687954
 20
13.136470
 11
24.687954
 21
13.136470
  0
LINE
  8
CutLine
  6
CONTINUOUS
 62
8
 10
24.687954
 20
13.136470
 11
29.629761
 21
17.564424
  0
LINE
  8
CutLine
  6
CONTINUOUS
 62
8
 10
16.276116
 20
23.057428
 11
16.671897
 21
16.433864
  0
LINE
  8
CutLine
  6
CONTINUOUS
 62
8
 10
16.671897
 20
16.433864
 11
16.671897
 21
16.433864
  0
LINE
  8
CutLine
  6
CONTINUOUS
 62
8
 10
16.671897
 20
16.433864
 11
22.591355
 21
19.431905
  0
LINE
  8
CutLine
  6
CONTINUOUS
 62
8
 10
11.114420
 20
28.193919
 11
9.782408
 21
21.693613
  0
LINE
  8
CutLine
  6
CONTINUOUS
 62
8
 10
9.782408
 20
21.693613
 11
9.782408
 21
21.693613
  0
LINE
  8
CutLine
  6
CONTINUOUS
 62
8
 10
9.782408
 20
21.693613
 11
16.276116
 21
23.057428
  0
LINE
  8
CutLine
  6
CONTINUOUS
 62
8
 10
7.458025
 20
34.491333
 11
4.488999
 21
28.557269
  0
LINE
  8
CutLine
  6
CONTINUOUS
 62
8
 10
4.488999
 20
28.557269
 11
4.488999
 21
28.557269
  0
LINE
  8
CutLine
  6
CONTINUOUS
 62
8
 10
4.488999
 20
28.557269
 11
11.114420
 21
28.193919
  0
LINE
  8
CutLine
  6
CONTINUOUS
 62
8
 10
5.556108
 20
41.520513
 11
1.152401
 21
36.557087
  0
LINE
  8
CutLine
  6
CONTINUOUS
 62
8
 10
1.152401
 20
36.557087
 11
1.152401
 21
36.557087
  0
LINE
  8
CutLine
  6
CONTINUOUS
 62
8
 10
1.152401
 20
36.557087
 11
7.458025
 21
34.491333
  0
LINE
  8
CutLine
  6
CONTINUOUS
 62
8
 10
5.538285
 20
48.802432
 11
0.000000
 21
45.147895
  0
LINE
  8
CutLine
  6
CONTINUOUS
 62
8
 10
0.000000
 20
45.147895
 11
0.000000
 21
45.147895
  0
LINE
  8
CutLine
  6
CONTINUOUS
 62
8
 10
0.000000
 20
45.147895
 11
5.556108
 21
41.520513
  0
LINE
  8
CutLine
  6
CONTINUOUS
 62
8
 10
7.405766
 20
55.840837
 11
1.110331
 21
53.744239
  0
LINE
  8
CutLine
  6
CONTINUOUS
 62
8
 10
1.110331
 20
53.744239
 11
1.110331
 21
53.744239
  0
LINE
  8
CutLine
  6
CONTINUOUS
 62
8
 10
1.110331
 20
53.744239
 11
5.538285
 21
48.802432
  0
LINE
  8
CutLine
  6
CONTINUOUS
 62
8
 10
11.031289
 20
62.156076
 11
4.407725
 21
61.760296
  0
LINE
  8
CutLine
  6
CONTINUOUS
 62
8
 10
4.407725
 20
61.760296
 11
4.407725
 21
61.760296
  0
LINE
  8
CutLine
  6
CONTINUOUS
 62
8
 10
4.407725
 20
61.760296
 11
7.405766
 21
55.840837
  0
LINE
  8
CutLine
  6
CONTINUOUS
 62
8
 10
16.167780
 20
67.317773
 11
9.667474
 21
68.649784
  0
LINE
  8
CutLine
  6
CONTINUOUS
 62
8
 10
9.667474
 20
68.649784
 11
9.667474
 21
68.649784
  0
LINE
  8
CutLine
  6
CONTINUOUS
 62
8
 10
9.667474
 20
68.649784
 11
11.031289
 21
62.156076
  0
LINE
  8
CutLine
  6
CONTINUOUS
 62
8
 10
22.465194
 20
70.974168
 11
16.531130
 21
73.943194
  0
LINE
  8
CutLine
  6
CONTINUOUS
 62
8
 10
16.531130
 20
73.943194
 11
16.531130
 21
73.943194
  0
LINE
  8
CutLine
  6
CONTINUOUS
 62
8
 10
16.531130
 20
73.943194
 11
16.167780
 21
67.317773
  0
LINE
  8
CutLine
  6
CONTINUOUS
 62
8
 10
29.494374
 20
72.876085
 11
24.530948
 21
77.279792
  0
LINE
  8
CutLine
  6
CONTINUOUS
 62
8
 10
24.530948
 20
77.279792
 11
24.530948
 21
77.279792
  0
LINE
  8
CutLine
  6
CONTINUOUS
 62
8
 10
24.530948
 20
77.279792
 11
22.465194
 21
70.974168
  0
LINE
  8
CutLine
  6
CONTINUOUS
 62
8
 10
36.776293
 20
72.893908
 11
33.121756
 21
78.432193
  0
LINE
  8
CutLine
  6
CONTINUOUS
 62
8
 10
33.121756
 20
78.432193
 11
33.121756
 21
78.432193
  0
LINE
  8
CutLine
  6
CONTINUOUS
 62
8
 10
33.121756
 20
78.432193
 11
29.494374
 21
72.876085
  0
LINE
  8
CutLine
  6
CONTINUOUS
 62
8
 10
43.940860
 20
19.484164
 11
49.874923
 21
16.515138
  0
LINE
  8
CutLine
  6
CONTINUOUS
 62
8
 10
49.874923
 20
16.515138
 11
49.874923
 21
16.515138
  0
LINE
  8
CutLine
  6
CONTINUOUS
 62
8
 10
49.874923
 20
16.515138
 11
50.238273
 21
23.140559
  0
LINE
  8
CutLine
  6
CONTINUOUS
 62
8
 10
50.238273
 20
23.140559
 11
56.738579
 21
21.808547
  0
LINE
  8
CutLine
  6
CONTINUOUS
 62
8
 10
56.738579
 20
21.808547
 11
56.738579
 21
21.808547
  0
LINE
  8
CutLine
  6
CONTINUOUS
 62
8
 10
56.738579
 20
21.808547
 11
55.374765
 21
28.302255
  0
LINE
  8
CutLine
  6
CONTINUOUS
 62
8
 10
50.129937
 20
67.400904
 11
49.734157
 21
74.024467
  0
LINE
  8
CutLine
  6
CONTINUOUS
 62
8
 10
49.734157
 20
74.024467
 11
49.734157
 21
74.024467
  0
LINE
  8
CutLine
  6
CONTINUOUS
 62
8
 10
49.734157
 20
74.024467
 11
43.814698
 21
71.026427
  0
LINE
  8
CutLine
  6
CONTINUOUS
 62
8
 10
43.814698
 20
71.026427
 11
41.718100
 21
77.321862
  0
LINE
  8
CutLine
  6
CONTINUOUS
 62
8
 10
41.718100
 20
77.321862
 11
41.718100
 21
77.321862
  0
LINE
  8
CutLine
  6
CONTINUOUS
 62
8
 10
41.718100
 20
77.321862
 11
36.776293
 21
72.893908
  0
LINE
  8
CutLine
  6
CONTINUOUS
 62
8
 10
60.870807
 20
41.656308
 11
66.417885
 21
43.380588
  0
LINE
  8
CutLine
  6
CONTINUOUS
 62
8
 10
66.417885
 20
43.380588
 11
66.417885
 21
43.380588
  0
LINE
  8
CutLine
  6
CONTINUOUS
 62
8
 10
66.417885
 20
43.380588
 11
60.870536
 21
45.103996
  0
LINE
  8
CutLine
  6
CONTINUOUS
 62
8
 10
60.870536
 20
45.103996
 11
66.413349
 21
46.061445
  0
LINE
  8
CutLine
  6
CONTINUOUS
 62
8
 10
66.413349
 20
46.061445
 11
66.413349
 21
46.061445
  0
LINE
  8
CutLine
  6
CONTINUOUS
 62
8
 10
66.413349
 20
46.061445
 11
60.861857
 21
46.967214
  0
LINE
  8
CutLine
  6
CONTINUOUS
 62
8
 10
132.319187
 20
83.979405
 11
167.100186
 21
161.715404
  0
LINE
  8
CutLine
  6
CONTINUOUS
 62
8
 10
167.100186
 20
161.715404
 11
174.452787
 21
181.517474
  0
LINE
  8
CutLine
  6
CONTINUOUS
 62
8
 10
174.452787
 20
181.517474
 11
171.183378
 21
188.648680
  0
LINE
  8
CutLine
  6
CONTINUOUS
 62
8
 10
148.522181
 20
72.884981
 11
140.735446
 21
78.432193
  0
LINE
  8
CutLine
  6
CONTINUOUS
 62
8
 10
140.735446
 20
78.432193
 11
140.735446
 21
78.432193
  0
LINE
  8
CutLine
  6
CONTINUOUS
 62
8
 10
140.735446
 20
78.432193
 11
132.948713
 21
72.884979
  0
LINE
  8
CutLine
  6
CONTINUOUS
 62
8
 10
1.361152
 20
6.478926
 11
0.000000
 21
0.000000
  0
LINE
  8
CutLine
  6
CONTINUOUS
 62
8
 10
0.000000
 20
0.000000
 11
0.000000
 21
0.000000
  0
LINE
  8
CutLine
  6
CONTINUOUS
 62
8
 10
0.000000
 20
0.000000
 11
6.476324
 21
1.373478
  0
LINE
  8
CutLine
  6
CONTINUOUS
 62
8
 10
6.476324
 20
1.373478
 11
11.263342
 21
4.176413
  0
LINE
  8
CutLine
  6
CONTINUOUS
 62
8
 10
11.263342
 20
4.176413
 11
11.263342
 21
4.176413
  0
LINE
  8
CutLine
  6
CONTINUOUS
 62
8
 10
11.263342
 20
4.176413
 11
6.455920
 21
1.408619
  0
LINE
  8
CutLine
  6
CONTINUOUS
 62
8
 10
113.809114
 20
44.875134
 11
112.793502
 21
43.106226
  0
LINE
  8
CutLine
  6
CONTINUOUS
 62
8
 10
112.793502
 20
43.106226
 11
111.814355
 21
41.400827
  0
LINE
  8
CutLine
  6
CONTINUOUS
 62
8
 10
111.814355
 20
41.400827
 11
110.375521
 21
39.955052
  0
LINE
  8
CutLine
  6
CONTINUOUS
 62
8
 10
103.832305
 20
23.129720
 11
110.830265
 21
25.143475
  0
LINE
  8
CutLine
  6
CONTINUOUS
 62
8
 10
110.375521
 20
39.955052
 11
108.988348
 21
38.561185
  0
LINE
  8
MountainLine
  6
CONTINUOUS
 62
5
 10
108.988348
 20
38.561185
 11
107.224348
 21
37.537072
  0
LINE
  8
MountainLine
  6
CONTINUOUS
 62
5
 10
107.224348
 20
37.537072
 11
105.523682
 21
36.549727
  0
LINE
  8
MountainLine
  6
CONTINUOUS
 62
5
 10
105.523682
 20
36.549727
 11
103.554729
 21
36.017065
  0
LINE
  8
CutLine
  6
CONTINUOUS
 62
8
 10
96.551596
 20
22.995790
 11
103.832305
 21
23.129720
  0
LINE
  8
MountainLine
  6
CONTINUOUS
 62
5
 10
103.554729
 20
36.017065
 11
101.656468
 21
35.503529
  0
LINE
  8
MountainLine
  6
CONTINUOUS
 62
5
 10
101.656468
 20
35.503529
 11
99.616742
 21
35.498620
  0
LINE
  8
MountainLine
  6
CONTINUOUS
 62
5
 10
99.616742
 20
35.498620
 11
97.650249
 21
35.493887
  0
LINE
  8
MountainLine
  6
CONTINUOUS
 62
5
 10
97.650249
 20
35.493887
 11
95.678755
 21
36.017065
  0
LINE
  8
CutLine
  6
CONTINUOUS
 62
8
 10
89.484308
 20
24.750810
 11
96.551596
 21
22.995790
  0
LINE
  8
MountainLine
  6
CONTINUOUS
 62
5
 10
95.678755
 20
36.017065
 11
93.778045
 21
36.521459
  0
LINE
  8
MountainLine
  6
CONTINUOUS
 62
5
 10
93.778045
 20
36.521459
 11
92.009136
 21
37.537072
  0
LINE
  8
MountainLine
  6
CONTINUOUS
 62
5
 10
92.009136
 20
37.537072
 11
90.303737
 21
38.516219
  0
LINE
  8
MountainLine
  6
CONTINUOUS
 62
5
 10
90.303737
 20
38.516219
 11
88.857963
 21
39.955052
  0
LINE
  8
CutLine
  6
CONTINUOUS
 62
8
 10
83.112065
 20
28.275178
 11
89.484308
 21
24.750810
  0
LINE
  8
MountainLine
  6
CONTINUOUS
 62
5
 10
88.857963
 20
39.955052
 11
87.464096
 21
41.342226
  0
LINE
  8
CutLine
  6
CONTINUOUS
 62
8
 10
87.464096
 20
41.342226
 11
86.439982
 21
43.106226
  0
LINE
  8
CutLine
  6
CONTINUOUS
 62
8
 10
86.439982
 20
43.106226
 11
85.452637
 21
44.806892
  0
LINE
  8
MountainLine
  6
CONTINUOUS
 62
5
 10
85.452637
 20
44.806892
 11
84.919975
 21
46.775845
  0
LINE
  8
MountainLine
  6
CONTINUOUS
 62
5
 10
84.919975
 20
46.775845
 11
84.406439
 21
48.674106
  0
LINE
  8
MountainLine
  6
CONTINUOUS
 62
5
 10
84.406439
 20
48.674106
 11
84.401530
 21
50.713832
  0
LINE
  8
MountainLine
  6
CONTINUOUS
 62
5
 10
84.401530
 20
50.713832
 11
84.396797
 21
52.680324
  0
LINE
  8
CutLine
  6
CONTINUOUS
 62
8
 10
73.720115
 20
60.912981
 11
71.965097
 21
53.845694
  0
LINE
  8
CutLine
  6
CONTINUOUS
 62
8
 10
71.965097
 20
53.845694
 11
72.099028
 21
46.564985
  0
LINE
  8
CutLine
  6
CONTINUOUS
 62
8
 10
72.099028
 20
46.564985
 11
74.112780
 21
39.567025
  0
LINE
  8
CutLine
  6
CONTINUOUS
 62
8
 10
77.244483
 20
67.285225
 11
73.720115
 21
60.912981
  0
LINE
  8
CutLine
  6
CONTINUOUS
 62
8
 10
74.112780
 20
39.567025
 11
77.869122
 21
33.328712
  0
LINE
  8
CutLine
  6
CONTINUOUS
 62
8
 10
82.298018
 20
72.528168
 11
77.244483
 21
67.285225
  0
LINE
  8
CutLine
  6
CONTINUOUS
 62
8
 10
77.869122
 20
33.328712
 11
83.112065
 21
28.275178
  0
LINE
  8
MountainLine
  6
CONTINUOUS
 62
5
 10
84.396797
 20
52.680324
 11
84.919975
 21
54.651818
  0
LINE
  8
MountainLine
  6
CONTINUOUS
 62
5
 10
84.919975
 20
54.651818
 11
85.424370
 21
56.552529
  0
LINE
  8
MountainLine
  6
CONTINUOUS
 62
5
 10
85.424370
 20
56.552529
 11
86.439982
 21
58.321438
  0
LINE
  8
MountainLine
  6
CONTINUOUS
 62
5
 10
86.439982
 20
58.321438
 11
87.419129
 21
60.026836
  0
LINE
  8
CutLine
  6
CONTINUOUS
 62
8
 10
88.536331
 20
76.284510
 11
82.298018
 21
72.528168
  0
LINE
  8
MountainLine
  6
CONTINUOUS
 62
5
 10
87.419129
 20
60.026836
 11
88.857963
 21
61.472611
  0
LINE
  8
MountainLine
  6
CONTINUOUS
 62
5
 10
88.857963
 20
61.472611
 11
90.245136
 21
62.866478
  0
LINE
  8
MountainLine
  6
CONTINUOUS
 62
5
 10
90.245136
 20
62.866478
 11
92.009136
 21
63.890591
  0
LINE
  8
MountainLine
  6
CONTINUOUS
 62
5
 10
92.009136
 20
63.890591
 11
93.709803
 21
64.877936
  0
LINE
  8
CutLine
  6
CONTINUOUS
 62
8
 10
95.534292
 20
78.298262
 11
88.536331
 21
76.284510
  0
LINE
  8
MountainLine
  6
CONTINUOUS
 62
5
 10
93.709803
 20
64.877936
 11
95.678755
 21
65.410598
  0
LINE
  8
MountainLine
  6
CONTINUOUS
 62
5
 10
95.678755
 20
65.410598
 11
97.577017
 21
65.924134
  0
LINE
  8
MountainLine
  6
CONTINUOUS
 62
5
 10
97.577017
 20
65.924134
 11
101.583235
 21
65.933776
  0
LINE
  8
CutLine
  6
CONTINUOUS
 62
8
 10
102.815000
 20
78.432193
 11
95.534292
 21
78.298262
  0
LINE
  8
MountainLine
  6
CONTINUOUS
 62
5
 10
101.583235
 20
65.933776
 11
103.554729
 21
65.410598
  0
LINE
  8
MountainLine
  6
CONTINUOUS
 62
5
 10
103.554729
 20
65.410598
 11
105.455439
 21
64.906204
  0
LINE
  8
MountainLine
  6
CONTINUOUS
 62
5
 10
105.455439
 20
64.906204
 11
107.224348
 21
63.890591
  0
LINE
  8
MountainLine
  6
CONTINUOUS
 62
5
 10
107.224348
 20
63.890591
 11
108.929747
 21
62.911444
  0
LINE
  8
CutLine
  6
CONTINUOUS
 62
8
 10
109.882288
 20
76.677175
 11
102.815000
 21
78.432193
  0
LINE
  8
MountainLine
  6
CONTINUOUS
 62
5
 10
108.929747
 20
62.911444
 11
110.375521
 21
61.472611
  0
LINE
  8
MountainLine
  6
CONTINUOUS
 62
5
 10
110.375521
 20
61.472611
 11
111.769389
 21
60.085438
  0
LINE
  8
MountainLine
  6
CONTINUOUS
 62
5
 10
111.769389
 20
60.085438
 11
112.793502
 21
58.321438
  0
LINE
  8
MountainLine
  6
CONTINUOUS
 62
5
 10
112.793502
 20
58.321438
 11
113.780847
 21
56.620771
  0
LINE
  8
MountainLine
  6
CONTINUOUS
 62
5
 10
113.780847
 20
56.620771
 11
114.313509
 21
54.651818
  0
LINE
  8
MountainLine
  6
CONTINUOUS
 62
5
 10
114.313509
 20
54.651818
 11
114.827045
 21
52.753557
  0
LINE
  8
CutLine
  6
CONTINUOUS
 62
8
 10
116.254533
 20
73.152807
 11
109.882288
 21
76.677175
  0
LINE
  8
CutLine
  6
CONTINUOUS
 62
8
 10
114.827045
 20
52.753557
 11
114.836687
 21
48.747339
  0
LINE
  8
CutLine
  6
CONTINUOUS
 62
8
 10
125.646480
 20
40.515001
 11
127.401500
 21
47.582290
  0
LINE
  8
CutLine
  6
CONTINUOUS
 62
8
 10
127.401500
 20
47.582290
 11
127.267570
 21
54.862998
  0
LINE
  8
CutLine
  6
CONTINUOUS
 62
8
 10
127.267570
 20
54.862998
 11
125.253815
 21
61.860959
  0
LINE
  8
CutLine
  6
CONTINUOUS
 62
8
 10
122.122112
 20
34.142757
 11
125.646480
 21
40.515001
  0
LINE
  8
CutLine
  6
CONTINUOUS
 62
8
 10
125.253815
 20
61.860959
 11
121.497473
 21
68.099272
  0
LINE
  8
CutLine
  6
CONTINUOUS
 62
8
 10
117.068578
 20
28.899817
 11
122.122112
 21
34.142757
  0
LINE
  8
CutLine
  6
CONTINUOUS
 62
8
 10
121.497473
 20
68.099272
 11
116.254533
 21
73.152807
  0
LINE
  8
CutLine
  6
CONTINUOUS
 62
8
 10
110.830265
 20
25.143475
 11
117.068578
 21
28.899817
  0
LINE
  8
MountainLine
  6
CONTINUOUS
 62
5
 10
114.836687
 20
48.747339
 11
114.313509
 21
46.775845
  0
LINE
  8
MountainLine
  6
CONTINUOUS
 62
5
 10
114.313509
 20
46.775845
 11
113.809114
 21
44.875134
  0
LINE
  8
CutLine
  6
CONTINUOUS
 62
8
 10
26.955868
 20
41.583758
 11
26.227460
 21
43.342087
  0
LINE
  8
CutLine
  6
CONTINUOUS
 62
8
 10
28.114546
 20
40.073868
 11
26.955868
 21
41.583758
  0
LINE
  8
CutLine
  6
CONTINUOUS
 62
8
 10
29.624531
 20
38.915314
 11
28.114546
 21
40.073868
  0
LINE
  8
CutLine
  6
CONTINUOUS
 62
8
 10
31.382920
 20
38.187051
 11
29.624531
 21
38.915314
  0
LINE
  8
CutLine
  6
CONTINUOUS
 62
8
 10
33.269883
 20
37.938706
 11
31.382920
 21
38.187051
  0
LINE
  8
CutLine
  6
CONTINUOUS
 62
8
 10
35.156824
 20
38.187206
 11
33.269883
 21
37.938706
  0
LINE
  8
CutLine
  6
CONTINUOUS
 62
8
 10
36.915154
 20
38.915614
 11
35.156824
 21
38.187206
  0
LINE
  8
CutLine
  6
CONTINUOUS
 62
8
 10
40.560205
 20
45.229629
 11
40.311861
 21
43.342666
  0
LINE
  8
ValleyLine
  6
CONTINUOUS
 62
1
 10
36.911679
 20
17.582247
 11
43.940860
 21
19.484164
  0
LINE
  8
ValleyLine
  6
CONTINUOUS
 62
1
 10
29.629761
 20
17.564424
 11
36.911679
 21
17.582247
  0
LINE
  8
ValleyLine
  6
CONTINUOUS
 62
1
 10
22.591355
 20
19.431905
 11
29.629761
 21
17.564424
  0
LINE
  8
ValleyLine
  6
CONTINUOUS
 62
1
 10
16.276116
 20
23.057428
 11
22.591355
 21
19.431905
  0
LINE
  8
ValleyLine
  6
CONTINUOUS
 62
1
 10
11.114420
 20
28.193919
 11
16.276116
 21
23.057428
  0
LINE
  8
ValleyLine
  6
CONTINUOUS
 62
1
 10
7.458025
 20
34.491333
 11
11.114420
 21
28.193919
  0
LINE
  8
ValleyLine
  6
CONTINUOUS
 62
1
 10
5.556108
 20
41.520513
 11
7.458025
 21
34.491333
  0
LINE
  8
ValleyLine
  6
CONTINUOUS
 62
1
 10
5.538285
 20
48.802432
 11
5.556108
 21
41.520513
  0
LINE
  8
ValleyLine
  6
CONTINUOUS
 62
1
 10
7.405766
 20
55.840837
 11
5.538285
 21
48.802432
  0
LINE
  8
ValleyLine
  6
CONTINUOUS
 62
1
 10
11.031289
 20
62.156076
 11
7.405766
 21
55.840837
  0
LINE
  8
ValleyLine
  6
CONTINUOUS
 62
1
 10
16.167780
 20
67.317773
 11
11.031289
 21
62.156076
  0
LINE
  8
ValleyLine
  6
CONTINUOUS
 62
1
 10
22.465194
 20
70.974168
 11
16.167780
 21
67.317773
  0
LINE
  8
ValleyLine
  6
CONTINUOUS
 62
1
 10
29.494374
 20
72.876085
 11
22.465194
 21
70.974168
  0
LINE
  8
ValleyLine
  6
CONTINUOUS
 62
1
 10
36.776293
 20
72.893908
 11
29.494374
 21
72.876085
  0
LINE
  8
CutLine
  6
CONTINUOUS
 62
8
 10
33.269283
 20
52.519951
 11
35.156245
 21
52.271607
  0
LINE
  8
CutLine
  6
CONTINUOUS
 62
8
 10
31.382341
 20
52.271451
 11
33.269283
 21
52.519951
  0
LINE
  8
CutLine
  6
CONTINUOUS
 62
8
 10
29.624012
 20
51.543043
 11
31.382341
 21
52.271451
  0
LINE
  8
CutLine
  6
CONTINUOUS
 62
8
 10
28.114122
 20
50.384365
 11
29.624012
 21
51.543043
  0
LINE
  8
CutLine
  6
CONTINUOUS
 62
8
 10
26.955568
 20
48.874380
 11
28.114122
 21
50.384365
  0
LINE
  8
CutLine
  6
CONTINUOUS
 62
8
 10
26.227305
 20
47.115991
 11
26.955568
 21
48.874380
  0
LINE
  8
CutLine
  6
CONTINUOUS
 62
8
 10
25.978960
 20
45.229029
 11
26.227305
 21
47.115991
  0
LINE
  8
CutLine
  6
CONTINUOUS
 62
8
 10
26.227460
 20
43.342087
 11
25.978960
 21
45.229029
  0
LINE
  8
CutLine
  6
CONTINUOUS
 62
8
 10
35.156245
 20
52.271607
 11
36.914634
 21
51.543343
  0
LINE
  8
CutLine
  6
CONTINUOUS
 62
8
 10
36.914634
 20
51.543343
 11
38.424619
 21
50.384789
  0
LINE
  8
CutLine
  6
CONTINUOUS
 62
8
 10
38.424619
 20
50.384789
 11
39.583297
 21
48.874900
  0
LINE
  8
CutLine
  6
CONTINUOUS
 62
8
 10
39.583297
 20
48.874900
 11
40.311706
 21
47.116570
  0
LINE
  8
CutLine
  6
CONTINUOUS
 62
8
 10
40.311706
 20
47.116570
 11
40.560205
 21
45.229629
  0
LINE
  8
ValleyLine
  6
CONTINUOUS
 62
1
 10
43.940860
 20
19.484164
 11
50.238273
 21
23.140559
  0
LINE
  8
ValleyLine
  6
CONTINUOUS
 62
1
 10
50.238273
 20
23.140559
 11
55.374765
 21
28.302255
  0
LINE
  8
CutLine
  6
CONTINUOUS
 62
8
 10
55.374765
 20
28.302255
 11
59.002598
 21
34.600273
  0
LINE
  8
CutLine
  6
CONTINUOUS
 62
8
 10
58.948029
 20
55.966999
 11
55.341122
 21
62.200245
  0
LINE
  8
CutLine
  6
CONTINUOUS
 62
8
 10
55.341122
 20
62.200245
 11
55.312039
 21
62.229271
  0
LINE
  8
CutLine
  6
CONTINUOUS
 62
8
 10
55.312039
 20
62.229271
 11
50.196656
 21
67.334510
  0
LINE
  8
CutLine
  6
CONTINUOUS
 62
8
 10
50.196656
 20
67.334510
 11
50.129937
 21
67.400904
  0
LINE
  8
ValleyLine
  6
CONTINUOUS
 62
1
 10
50.129937
 20
67.400904
 11
43.814698
 21
71.026427
  0
LINE
  8
ValleyLine
  6
CONTINUOUS
 62
1
 10
43.814698
 20
71.026427
 11
36.776293
 21
72.893908
  0
LINE
  8
CutLine
  6
CONTINUOUS
 62
8
 10
60.851438
 20
48.938222
 11
58.981461
 21
55.909447
  0
LINE
  8
CutLine
  6
CONTINUOUS
 62
8
 10
58.981461
 20
55.909447
 11
58.948029
 21
55.966999
  0
LINE
  8
CutLine
  6
CONTINUOUS
 62
8
 10
59.004820
 20
34.617506
 11
59.854935
 21
38.132461
  0
LINE
  8
CutLine
  6
CONTINUOUS
 62
8
 10
59.854935
 20
38.132461
 11
60.487978
 21
41.677679
  0
LINE
  8
CutLine
  6
CONTINUOUS
 62
8
 10
60.487978
 20
41.677679
 11
60.404941
 21
38.243713
  0
LINE
  8
MountainLine
  6
CONTINUOUS
 62
5
 10
60.870807
 20
41.656308
 11
60.870536
 21
45.103996
  0
LINE
  8
MountainLine
  6
CONTINUOUS
 62
5
 10
60.870536
 20
45.103996
 11
60.861857
 21
46.967214
  0
LINE
  8
CutLine
  6
CONTINUOUS
 62
8
 10
60.861857
 20
46.967214
 11
60.851438
 21
48.938222
  0
LINE
  8
CutLine
  6
CONTINUOUS
 62
8
 10
60.404941
 20
38.243713
 11
60.270809
 21
36.379395
  0
LINE
  8
CutLine
  6
CONTINUOUS
 62
8
 10
60.270809
 20
36.379395
 11
60.486810
 21
38.230071
  0
LINE
  8
CutLine
  6
CONTINUOUS
 62
8
 10
60.486810
 20
38.230071
 11
60.870807
 21
41.656308
  0
LINE
  8
CutLine
  6
CONTINUOUS
 62
8
 10
59.002598
 20
34.600273
 11
59.004820
 21
34.617506
  0
LINE
  8
CutLine
  6
CONTINUOUS
 62
8
 10
40.311861
 20
43.342666
 11
39.583597
 21
41.584277
  0
LINE
  8
CutLine
  6
CONTINUOUS
 62
8
 10
39.583597
 20
41.584277
 11
38.425043
 21
40.074292
  0
LINE
  8
CutLine
  6
CONTINUOUS
 62
8
 10
38.425043
 20
40.074292
 11
36.915154
 21
38.915614
  0
LINE
  8
CutLine
  6
CONTINUOUS
 62
8
 10
118.907361
 20
88.172362
 11
120.882244
 21
87.662117
  0
LINE
  8
ValleyLine
  6
CONTINUOUS
 62
1
 10
120.882244
 20
87.662117
 11
144.721788
 21
174.643335
  0
LINE
  8
CutLine
  6
CONTINUOUS
 62
8
 10
117.003384
 20
88.664287
 11
118.907361
 21
88.172362
  0
LINE
  8
CutLine
  6
CONTINUOUS
 62
8
 10
144.721788
 20
174.643335
 11
142.585238
 21
174.465057
  0
LINE
  8
CutLine
  6
CONTINUOUS
 62
8
 10
142.585238
 20
174.465057
 11
139.727897
 21
174.872760
  0
LINE
  8
ValleyLine
  6
CONTINUOUS
 62
1
 10
138.085861
 20
175.503504
 11
117.003384
 21
88.664287
  0
LINE
  8
CutLine
  6
CONTINUOUS
 62
8
 10
139.727897
 20
174.872760
 11
138.085861
 21
175.503504
  0
LINE
  8
CutLine
  6
CONTINUOUS
 62
8
 10
138.085861
 20
175.503504
 11
136.671328
 21
175.948185
  0
LINE
  8
CutLine
  6
CONTINUOUS
 62
8
 10
136.671328
 20
175.948185
 11
133.532830
 21
177.614030
  0
LINE
  8
CutLine
  6
CONTINUOUS
 62
8
 10
133.532830
 20
177.614030
 11
132.043222
 21
178.956780
  0
LINE
  8
CutLine
  6
CONTINUOUS
 62
8
 10
115.014385
 20
89.116378
 11
117.003384
 21
88.664287
  0
LINE
  8
ValleyLine
  6
CONTINUOUS
 62
1
 10
132.043222
 20
178.956780
 11
113.096797
 21
89.552237
  0
LINE
  8
CutLine
  6
CONTINUOUS
 62
8
 10
113.096797
 20
89.552237
 11
115.014385
 21
89.116378
  0
LINE
  8
CutLine
  6
CONTINUOUS
 62
8
 10
91.228846
 20
92.352185
 11
93.266280
 21
92.255416
  0
LINE
  8
ValleyLine
  6
CONTINUOUS
 62
1
 10
93.266280
 20
92.255416
 11
100.198705
 21
203.691603
  0
LINE
  8
CutLine
  6
CONTINUOUS
 62
8
 10
89.264561
 20
92.445480
 11
91.228846
 21
92.352185
  0
LINE
  8
CutLine
  6
CONTINUOUS
 62
8
 10
100.198705
 20
203.691603
 11
92.924966
 21
204.037073
  0
LINE
  8
ValleyLine
  6
CONTINUOUS
 62
1
 10
92.924966
 20
204.037073
 11
89.264561
 21
92.445480
  0
LINE
  8
CutLine
  6
CONTINUOUS
 62
8
 10
87.225165
 20
92.482438
 11
89.264561
 21
92.445480
  0
LINE
  8
CutLine
  6
CONTINUOUS
 62
8
 10
85.258990
 20
92.518069
 11
87.225165
 21
92.482438
  0
LINE
  8
CutLine
  6
CONTINUOUS
 62
8
 10
92.924966
 20
204.037073
 11
85.644220
 21
204.169016
  0
LINE
  8
ValleyLine
  6
CONTINUOUS
 62
1
 10
85.644220
 20
204.169016
 11
85.258990
 21
92.518069
  0
LINE
  8
CutLine
  6
CONTINUOUS
 62
8
 10
83.219387
 20
92.495185
 11
85.258990
 21
92.518069
  0
LINE
  8
CutLine
  6
CONTINUOUS
 62
8
 10
81.253012
 20
92.473122
 11
83.219387
 21
92.495185
  0
LINE
  8
CutLine
  6
CONTINUOUS
 62
8
 10
85.644220
 20
204.169016
 11
78.362738
 21
204.087318
  0
LINE
  8
ValleyLine
  6
CONTINUOUS
 62
1
 10
78.362738
 20
204.087318
 11
81.253012
 21
92.473122
  0
LINE
  8
CutLine
  6
CONTINUOUS
 62
8
 10
79.214958
 20
92.390415
 11
81.253012
 21
92.473122
  0
LINE
  8
CutLine
  6
CONTINUOUS
 62
8
 10
77.250077
 20
92.310677
 11
79.214958
 21
92.390415
  0
LINE
  8
CutLine
  6
CONTINUOUS
 62
8
 10
78.362738
 20
204.087318
 11
71.086788
 21
203.792048
  0
LINE
  8
ValleyLine
  6
CONTINUOUS
 62
1
 10
71.086788
 20
203.792048
 11
77.250077
 21
92.310677
  0
LINE
  8
CutLine
  6
CONTINUOUS
 62
8
 10
107.459181
 20
203.132902
 11
100.198705
 21
203.691603
  0
LINE
  8
CutLine
  6
CONTINUOUS
 62
8
 10
93.266280
 20
92.255416
 11
97.260702
 21
91.948041
  0
LINE
  8
ValleyLine
  6
CONTINUOUS
 62
1
 10
97.260702
 20
91.948041
 11
107.459181
 21
203.132902
  0
LINE
  8
CutLine
  6
CONTINUOUS
 62
8
 10
114.700143
 20
202.361452
 11
107.459181
 21
203.132902
  0
LINE
  8
CutLine
  6
CONTINUOUS
 62
8
 10
97.260702
 20
91.948041
 11
101.244386
 21
91.523621
  0
LINE
  8
ValleyLine
  6
CONTINUOUS
 62
1
 10
101.244386
 20
91.523621
 11
114.700143
 21
202.361452
  0
LINE
  8
CutLine
  6
CONTINUOUS
 62
8
 10
103.192865
 20
91.258015
 11
105.213906
 21
90.982519
  0
LINE
  8
ValleyLine
  6
CONTINUOUS
 62
1
 10
105.213906
 20
90.982519
 11
121.915356
 21
201.377917
  0
LINE
  8
CutLine
  6
CONTINUOUS
 62
8
 10
101.244386
 20
91.523621
 11
103.192865
 21
91.258015
  0
LINE
  8
CutLine
  6
CONTINUOUS
 62
8
 10
121.915356
 20
201.377917
 11
114.700143
 21
202.361452
  0
LINE
  8
CutLine
  6
CONTINUOUS
 62
8
 10
129.098612
 20
200.183143
 11
121.915356
 21
201.377917
  0
LINE
  8
CutLine
  6
CONTINUOUS
 62
8
 10
105.213906
 20
90.982519
 11
107.153754
 21
90.659869
  0
LINE
  8
CutLine
  6
CONTINUOUS
 62
8
 10
107.153754
 20
90.659869
 11
109.165843
 21
90.325202
  0
LINE
  8
ValleyLine
  6
CONTINUOUS
 62
1
 10
109.165843
 20
90.325202
 11
129.098612
 21
200.183143
  0
LINE
  8
CutLine
  6
CONTINUOUS
 62
8
 10
132.043222
 20
178.956780
 11
130.577015
 21
179.721456
  0
LINE
  8
CutLine
  6
CONTINUOUS
 62
8
 10
130.577015
 20
179.721456
 11
128.197430
 21
182.047109
  0
LINE
  8
CutLine
  6
CONTINUOUS
 62
8
 10
128.197430
 20
182.047109
 11
128.208984
 21
184.104157
  0
LINE
  8
CutLine
  6
CONTINUOUS
 62
8
 10
111.095392
 20
89.945785
 11
113.096797
 21
89.552237
  0
LINE
  8
CutLine
  6
CONTINUOUS
 62
8
 10
109.165843
 20
90.325202
 11
111.095392
 21
89.945785
  0
LINE
  8
CutLine
  6
CONTINUOUS
 62
8
 10
136.243728
 20
198.778158
 11
129.098612
 21
200.183143
  0
LINE
  8
CutLine
  6
CONTINUOUS
 62
8
 10
128.208984
 20
184.104157
 11
130.610547
 21
185.691243
  0
LINE
  8
CutLine
  6
CONTINUOUS
 62
8
 10
130.610547
 20
185.691243
 11
133.604289
 21
186.323158
  0
LINE
  8
ValleyLine
  6
CONTINUOUS
 62
1
 10
133.604289
 20
186.323158
 11
136.243728
 21
198.778158
  0
LINE
  8
CutLine
  6
CONTINUOUS
 62
8
 10
133.604289
 20
186.323158
 11
134.474686
 21
186.766446
  0
LINE
  8
CutLine
  6
CONTINUOUS
 62
8
 10
143.304927
 20
197.173180
 11
136.243728
 21
198.778158
  0
LINE
  8
CutLine
  6
CONTINUOUS
 62
8
 10
134.474686
 20
186.766446
 11
137.858139
 21
187.480909
  0
LINE
  8
CutLine
  6
CONTINUOUS
 62
8
 10
137.858139
 20
187.480909
 11
141.006729
 21
187.534629
  0
LINE
  8
ValleyLine
  6
CONTINUOUS
 62
1
 10
141.006729
 20
187.534629
 11
143.344551
 21
197.164173
  0
LINE
  8
CutLine
  6
CONTINUOUS
 62
8
 10
143.344551
 20
197.164173
 11
143.304927
 21
197.173180
  0
LINE
  8
CutLine
  6
CONTINUOUS
 62
8
 10
141.006729
 20
187.534629
 11
141.546232
 21
187.579646
  0
LINE
  8
CutLine
  6
CONTINUOUS
 62
8
 10
141.546232
 20
187.579646
 11
144.403574
 21
187.171944
  0
LINE
  8
CutLine
  6
CONTINUOUS
 62
8
 10
150.394973
 20
195.342576
 11
143.344551
 21
197.164173
  0
LINE
  8
CutLine
  6
CONTINUOUS
 62
8
 10
144.403574
 20
187.171944
 11
147.032075
 21
186.162285
  0
LINE
  8
CutLine
  6
CONTINUOUS
 62
8
 10
147.032075
 20
186.162285
 11
147.741555
 21
185.661287
  0
LINE
  8
ValleyLine
  6
CONTINUOUS
 62
1
 10
147.741555
 20
185.661287
 11
150.394973
 21
195.342576
  0
LINE
  8
CutLine
  6
CONTINUOUS
 62
8
 10
75.215326
 20
92.168217
 11
77.250077
 21
92.310677
  0
LINE
  8
CutLine
  6
CONTINUOUS
 62
8
 10
73.253631
 20
92.030873
 11
75.215326
 21
92.168217
  0
LINE
  8
CutLine
  6
CONTINUOUS
 62
8
 10
71.086788
 20
203.792048
 11
63.822629
 21
203.283462
  0
LINE
  8
ValleyLine
  6
CONTINUOUS
 62
1
 10
63.822629
 20
203.283462
 11
73.253631
 21
92.030873
  0
LINE
  8
CutLine
  6
CONTINUOUS
 62
8
 10
71.223934
 20
91.828785
 11
73.253631
 21
92.030873
  0
LINE
  8
CutLine
  6
CONTINUOUS
 62
8
 10
69.267112
 20
91.633952
 11
71.223934
 21
91.828785
  0
LINE
  8
CutLine
  6
CONTINUOUS
 62
8
 10
63.822629
 20
203.283462
 11
56.576517
 21
202.561997
  0
LINE
  8
ValleyLine
  6
CONTINUOUS
 62
1
 10
56.576517
 20
202.561997
 11
69.267112
 21
91.633952
  0
LINE
  8
CutLine
  6
CONTINUOUS
 62
8
 10
56.576517
 20
202.561997
 11
49.354688
 21
201.628274
  0
LINE
  8
ValleyLine
  6
CONTINUOUS
 62
1
 10
49.354688
 20
201.628274
 11
65.293952
 21
91.120255
  0
LINE
  8
CutLine
  6
CONTINUOUS
 62
8
 10
65.293952
 20
91.120255
 11
69.267112
 21
91.633952
  0
LINE
  8
CutLine
  6
CONTINUOUS
 62
8
 10
49.354688
 20
201.628274
 11
42.163358
 21
200.483097
  0
LINE
  8
CutLine
  6
CONTINUOUS
 62
8
 10
63.279602
 20
90.799482
 11
65.293952
 21
91.120255
  0
LINE
  8
ValleyLine
  6
CONTINUOUS
 62
1
 10
42.163358
 20
200.483097
 11
61.337573
 21
90.490225
  0
LINE
  8
CutLine
  6
CONTINUOUS
 62
8
 10
61.337573
 20
90.490225
 11
63.279602
 21
90.799482
  0
LINE
  8
CutLine
  6
CONTINUOUS
 62
8
 10
42.163358
 20
200.483097
 11
35.008717
 21
199.127451
  0
LINE
  8
CutLine
  6
CONTINUOUS
 62
8
 10
59.333500
 20
90.110497
 11
61.337573
 21
90.490225
  0
LINE
  8
ValleyLine
  6
CONTINUOUS
 62
1
 10
35.008717
 20
199.127451
 11
57.401379
 21
89.744403
  0
LINE
  8
CutLine
  6
CONTINUOUS
 62
8
 10
57.401379
 20
89.744403
 11
59.333500
 21
90.110497
  0
LINE
  8
CutLine
  6
CONTINUOUS
 62
8
 10
55.409307
 20
89.306049
 11
57.401379
 21
89.744403
  0
LINE
  8
CutLine
  6
CONTINUOUS
 62
8
 10
35.008717
 20
199.127451
 11
27.896926
 21
197.562504
  0
LINE
  8
ValleyLine
  6
CONTINUOUS
 62
1
 10
27.896926
 20
197.562504
 11
53.488758
 21
88.883432
  0
LINE
  8
CutLine
  6
CONTINUOUS
 62
8
 10
53.488758
 20
88.883432
 11
55.409307
 21
89.306049
  0
LINE
  8
CutLine
  6
CONTINUOUS
 62
8
 10
51.510402
 20
88.386828
 11
53.488758
 21
88.883432
  0
LINE
  8
CutLine
  6
CONTINUOUS
 62
8
 10
49.603077
 20
87.908053
 11
51.510402
 21
88.386828
  0
LINE
  8
CutLine
  6
CONTINUOUS
 62
8
 10
27.896926
 20
197.562504
 11
20.834102
 21
195.789601
  0
LINE
  8
ValleyLine
  6
CONTINUOUS
 62
1
 10
20.834102
 20
195.789601
 11
49.603077
 21
87.908053
  0
LINE
  8
CutLine
  6
CONTINUOUS
 62
8
 10
47.640142
 20
87.353626
 11
49.603077
 21
87.908053
  0
LINE
  8
CutLine
  6
CONTINUOUS
 62
8
 10
45.747682
 20
86.819105
 11
47.640142
 21
87.353626
  0
LINE
  8
CutLine
  6
CONTINUOUS
 62
8
 10
20.834102
 20
195.789601
 11
13.826328
 21
193.810271
  0
LINE
  8
ValleyLine
  6
CONTINUOUS
 62
1
 10
13.826328
 20
193.810271
 11
45.747682
 21
86.819105
  0
LINE
  8
CutLine
  6
CONTINUOUS
 62
8
 10
43.801856
 20
86.207333
 11
45.747682
 21
86.819105
  0
LINE
  8
CutLine
  6
CONTINUOUS
 62
8
 10
41.925891
 20
85.617526
 11
43.801856
 21
86.207333
  0
LINE
  8
CutLine
  6
CONTINUOUS
 62
8
 10
13.826328
 20
193.810271
 11
6.879635
 21
191.626215
  0
LINE
  8
ValleyLine
  6
CONTINUOUS
 62
1
 10
6.879635
 20
191.626215
 11
41.925891
 21
85.617526
  0
LINE
  8
CutLine
  6
CONTINUOUS
 62
8
 10
39.998849
 20
84.948936
 11
41.925891
 21
85.617526
  0
LINE
  8
CutLine
  6
CONTINUOUS
 62
8
 10
38.140995
 20
84.304350
 11
39.998849
 21
84.948936
  0
LINE
  8
CutLine
  6
CONTINUOUS
 62
8
 10
6.879635
 20
191.626215
 11
0.000000
 21
189.239315
  0
LINE
  8
CutLine
  6
CONTINUOUS
 62
8
 10
0.000000
 20
189.239315
 11
38.140995
 21
84.304350
  0
LINE
  8
CutLine
  6
CONTINUOUS
 62
8
 10
150.040729
 20
178.840048
 11
149.001690
 21
177.037450
  0
LINE
  8
CutLine
  6
CONTINUOUS
 62
8
 10
157.388923
 20
193.314935
 11
150.394973
 21
195.342576
  0
LINE
  8
CutLine
  6
CONTINUOUS
 62
8
 10
147.741555
 20
185.661287
 11
148.872229
 21
184.686713
  0
LINE
  8
CutLine
  6
CONTINUOUS
 62
8
 10
148.872229
 20
184.686713
 11
149.972668
 21
182.861504
  0
LINE
  8
CutLine
  6
CONTINUOUS
 62
8
 10
149.972668
 20
182.861504
 11
150.375304
 21
180.846879
  0
LINE
  8
CutLine
  6
CONTINUOUS
 62
8
 10
150.375304
 20
180.846879
 11
150.040729
 21
178.840048
  0
LINE
  8
CutLine
  6
CONTINUOUS
 62
8
 10
120.882245
 20
87.662117
 11
122.770970
 21
87.114550
  0
LINE
  8
CutLine
  6
CONTINUOUS
 62
8
 10
122.770970
 20
87.114550
 11
124.730034
 21
86.546591
  0
LINE
  8
ValleyLine
  6
CONTINUOUS
 62
1
 10
124.730034
 20
86.546591
 11
157.388923
 21
193.314935
  0
LINE
  8
CutLine
  6
CONTINUOUS
 62
8
 10
149.001690
 20
177.037450
 11
147.359894
 21
175.615534
  0
LINE
  8
CutLine
  6
CONTINUOUS
 62
8
 10
147.359894
 20
175.615534
 11
145.276055
 21
174.713491
  0
LINE
  8
CutLine
  6
CONTINUOUS
 62
8
 10
145.276055
 20
174.713491
 11
144.721788
 21
174.643335
  0
LINE
  8
CutLine
  6
CONTINUOUS
 62
8
 10
128.543442
 20
85.318668
 11
132.319187
 21
83.979405
  0
LINE
  8
ValleyLine
  6
CONTINUOUS
 62
1
 10
132.319187
 20
83.979405
 11
171.183378
 21
188.648680
  0
LINE
  8
CutLine
  6
CONTINUOUS
 62
8
 10
171.183378
 20
188.648680
 11
164.320379
 21
191.082996
  0
LINE
  8
ValleyLine
  6
CONTINUOUS
 62
1
 10
164.320379
 20
191.082996
 11
128.543442
 21
85.318668
  0
LINE
  8
CutLine
  6
CONTINUOUS
 62
8
 10
164.320379
 20
191.082996
 11
157.388923
 21
193.314935
  0
LINE
  8
CutLine
  6
CONTINUOUS
 62
8
 10
124.730034
 20
86.546591
 11
126.601884
 21
85.943853
  0
LINE
  8
CutLine
  6
CONTINUOUS
 62
8
 10
126.601884
 20
85.943853
 11
128.543442
 21
85.318668
  0
LINE
  8
CutLine
  6
CONTINUOUS
 62
8
 10
132.948716
 20
34.256584
 11
132.948717
 21
32.223509
  0
LINE
  8
CutLine
  6
CONTINUOUS
 62
8
 10
132.948717
 20
32.223509
 11
148.522185
 21
32.223511
  0
LINE
  8
CutLine
  6
CONTINUOUS
 62
8
 10
148.522185
 20
32.223511
 11
149.286348
 21
34.256585
  0
LINE
  8
MountainLine
  6
CONTINUOUS
 62
5
 10
149.286348
 20
34.256585
 11
132.948716
 21
34.256584
  0
LINE
  8
CutLine
  6
CONTINUOUS
 62
8
 10
132.948716
 20
36.289656
 11
132.948716
 21
34.256584
  0
LINE
  8
CutLine
  6
CONTINUOUS
 62
8
 10
149.286348
 20
34.256585
 11
150.297628
 21
36.289658
  0
LINE
  8
MountainLine
  6
CONTINUOUS
 62
5
 10
150.297628
 20
36.289658
 11
132.948716
 21
36.289656
  0
LINE
  8
CutLine
  6
CONTINUOUS
 62
8
 10
150.297628
 20
36.289658
 11
150.574390
 21
36.774978
  0
LINE
  8
CutLine
  6
CONTINUOUS
 62
8
 10
150.574390
 20
36.774978
 11
152.057992
 21
38.322736
  0
LINE
  8
MountainLine
  6
CONTINUOUS
 62
5
 10
152.057992
 20
38.322736
 11
132.948716
 21
38.322734
  0
LINE
  8
CutLine
  6
CONTINUOUS
 62
8
 10
132.948716
 20
38.322734
 11
132.948716
 21
36.289656
  0
LINE
  8
CutLine
  6
CONTINUOUS
 62
8
 10
152.057992
 20
38.322736
 11
154.106708
 21
40.355808
  0
LINE
  8
MountainLine
  6
CONTINUOUS
 62
5
 10
154.106708
 20
40.355808
 11
132.948716
 21
40.355806
  0
LINE
  8
CutLine
  6
CONTINUOUS
 62
8
 10
132.948716
 20
40.355806
 11
132.948716
 21
38.322734
  0
LINE
  8
CutLine
  6
CONTINUOUS
 62
8
 10
154.106708
 20
40.355808
 11
155.323686
 21
41.625880
  0
LINE
  8
CutLine
  6
CONTINUOUS
 62
8
 10
132.948716
 20
42.388879
 11
132.948716
 21
40.355806
  0
LINE
  8
CutLine
  6
CONTINUOUS
 62
8
 10
155.323686
 20
41.625880
 11
156.595092
 21
42.388881
  0
LINE
  8
MountainLine
  6
CONTINUOUS
 62
5
 10
156.595092
 20
42.388881
 11
132.948716
 21
42.388879
  0
LINE
  8
CutLine
  6
CONTINUOUS
 62
8
 10
132.948716
 20
44.421955
 11
132.948716
 21
42.388879
  0
LINE
  8
CutLine
  6
CONTINUOUS
 62
8
 10
156.595092
 20
42.388881
 11
159.509163
 21
44.421957
  0
LINE
  8
MountainLine
  6
CONTINUOUS
 62
5
 10
159.509163
 20
44.421957
 11
132.948716
 21
44.421955
  0
LINE
  8
CutLine
  6
CONTINUOUS
 62
8
 10
132.948715
 20
46.455029
 11
132.948716
 21
44.421955
  0
LINE
  8
CutLine
  6
CONTINUOUS
 62
8
 10
159.509163
 20
44.421957
 11
160.967957
 21
45.798123
  0
LINE
  8
CutLine
  6
CONTINUOUS
 62
8
 10
160.967957
 20
45.798123
 11
162.485508
 21
46.455032
  0
LINE
  8
MountainLine
  6
CONTINUOUS
 62
5
 10
162.485508
 20
46.455032
 11
132.948715
 21
46.455029
  0
LINE
  8
CutLine
  6
CONTINUOUS
 62
8
 10
132.948715
 20
48.488103
 11
132.948715
 21
46.455029
  0
LINE
  8
CutLine
  6
CONTINUOUS
 62
8
 10
162.485508
 20
46.455032
 11
165.119459
 21
48.488106
  0
LINE
  8
MountainLine
  6
CONTINUOUS
 62
5
 10
165.119459
 20
48.488106
 11
132.948715
 21
48.488103
  0
LINE
  8
CutLine
  6
CONTINUOUS
 62
8
 10
132.948715
 20
50.521174
 11
132.948715
 21
48.488103
  0
LINE
  8
CutLine
  6
CONTINUOUS
 62
8
 10
165.119459
 20
48.488106
 11
165.432830
 21
50.521177
  0
LINE
  8
MountainLine
  6
CONTINUOUS
 62
5
 10
165.432830
 20
50.521177
 11
132.948715
 21
50.521174
  0
LINE
  8
CutLine
  6
CONTINUOUS
 62
8
 10
165.432830
 20
50.521177
 11
163.394946
 21
52.554247
  0
LINE
  8
MountainLine
  6
CONTINUOUS
 62
5
 10
163.394946
 20
52.554247
 11
132.948715
 21
52.554244
  0
LINE
  8
CutLine
  6
CONTINUOUS
 62
8
 10
132.948715
 20
52.554244
 11
132.948715
 21
50.521174
  0
LINE
  8
CutLine
  6
CONTINUOUS
 62
8
 10
163.394946
 20
52.554247
 11
160.642224
 21
53.890037
  0
LINE
  8
CutLine
  6
CONTINUOUS
 62
8
 10
160.642224
 20
53.890037
 11
159.958200
 21
54.587321
  0
LINE
  8
MountainLine
  6
CONTINUOUS
 62
5
 10
159.958200
 20
54.587321
 11
132.948715
 21
54.587319
  0
LINE
  8
CutLine
  6
CONTINUOUS
 62
8
 10
132.948715
 20
54.587319
 11
132.948715
 21
52.554244
  0
LINE
  8
CutLine
  6
CONTINUOUS
 62
8
 10
159.958200
 20
54.587321
 11
157.160911
 21
56.620395
  0
LINE
  8
MountainLine
  6
CONTINUOUS
 62
5
 10
157.160911
 20
56.620395
 11
132.948714
 21
56.620393
  0
LINE
  8
CutLine
  6
CONTINUOUS
 62
8
 10
132.948714
 20
56.620393
 11
132.948715
 21
54.587319
  0
LINE
  8
CutLine
  6
CONTINUOUS
 62
8
 10
132.948714
 20
58.653468
 11
132.948714
 21
56.620393
  0
LINE
  8
CutLine
  6
CONTINUOUS
 62
8
 10
157.160911
 20
56.620395
 11
154.473994
 21
58.262643
  0
LINE
  8
CutLine
  6
CONTINUOUS
 62
8
 10
154.473994
 20
58.262643
 11
154.099368
 21
58.653470
  0
LINE
  8
MountainLine
  6
CONTINUOUS
 62
5
 10
154.099368
 20
58.653470
 11
132.948714
 21
58.653468
  0
LINE
  8
CutLine
  6
CONTINUOUS
 62
8
 10
154.099368
 20
58.653470
 11
152.050652
 21
60.686543
  0
LINE
  8
MountainLine
  6
CONTINUOUS
 62
5
 10
152.050652
 20
60.686543
 11
132.948714
 21
60.686542
  0
LINE
  8
CutLine
  6
CONTINUOUS
 62
8
 10
132.948714
 20
60.686542
 11
132.948714
 21
58.653468
  0
LINE
  8
CutLine
  6
CONTINUOUS
 62
8
 10
132.948714
 20
62.719614
 11
132.948714
 21
60.686542
  0
LINE
  8
CutLine
  6
CONTINUOUS
 62
8
 10
152.050652
 20
60.686543
 11
150.102565
 21
62.719615
  0
LINE
  8
MountainLine
  6
CONTINUOUS
 62
5
 10
150.102565
 20
62.719615
 11
132.948714
 21
62.719614
  0
LINE
  8
CutLine
  6
CONTINUOUS
 62
8
 10
132.948714
 20
64.752692
 11
132.948714
 21
62.719614
  0
LINE
  8
CutLine
  6
CONTINUOUS
 62
8
 10
150.102565
 20
62.719615
 11
149.553897
 21
63.392910
  0
LINE
  8
CutLine
  6
CONTINUOUS
 62
8
 10
149.553897
 20
63.392910
 11
148.938099
 21
64.752693
  0
LINE
  8
MountainLine
  6
CONTINUOUS
 62
5
 10
148.938099
 20
64.752693
 11
132.948714
 21
64.752692
  0
LINE
  8
CutLine
  6
CONTINUOUS
 62
8
 10
148.938099
 20
64.752693
 11
148.298591
 21
66.785765
  0
LINE
  8
MountainLine
  6
CONTINUOUS
 62
5
 10
148.298591
 20
66.785765
 11
132.948713
 21
66.785764
  0
LINE
  8
CutLine
  6
CONTINUOUS
 62
8
 10
132.948713
 20
66.785764
 11
132.948714
 21
64.752692
  0
LINE
  8
CutLine
  6
CONTINUOUS
 62
8
 10
148.298591
 20
66.785765
 11
148.002889
 21
68.818840
  0
LINE
  8
MountainLine
  6
CONTINUOUS
 62
5
 10
148.002889
 20
68.818840
 11
132.948713
 21
68.818838
  0
LINE
  8
CutLine
  6
CONTINUOUS
 62
8
 10
132.948713
 20
68.818838
 11
132.948713
 21
66.785764
  0
LINE
  8
CutLine
  6
CONTINUOUS
 62
8
 10
132.948713
 20
70.851909
 11
132.948713
 21
68.818838
  0
LINE
  8
CutLine
  6
CONTINUOUS
 62
8
 10
148.002889
 20
68.818840
 11
148.079932
 21
70.851910
  0
LINE
  8
MountainLine
  6
CONTINUOUS
 62
5
 10
148.079932
 20
70.851910
 11
132.948713
 21
70.851909
  0
LINE
  8
CutLine
  6
CONTINUOUS
 62
8
 10
132.948713
 20
72.884979
 11
132.948713
 21
70.851909
  0
LINE
  8
CutLine
  6
CONTINUOUS
 62
8
 10
148.079932
 20
70.851910
 11
148.522181
 21
72.884981
  0
LINE
  8
MountainLine
  6
CONTINUOUS
 62
5
 10
148.522181
 20
72.884981
 11
132.948713
 21
72.884979
  0
LINE
  8
MountainLine
  6
CONTINUOUS
 62
5
 10
1.361152
 20
6.478926
 11
6.476324
 21
1.373478
  0
LINE
  8
ValleyLine
  6
CONTINUOUS
 62
1
 10
6.476324
 20
1.373478
 11
6.455920
 21
1.408619
  0
LINE
  8
CutLine
  6
CONTINUOUS
 62
8
 10
6.455920
 20
1.408619
 11
1.361152
 21
6.478926
  0
ENDSEC
  0
EOF
